Jump to content

Pink Floyd-Another Brick In The Wall ritm Gitar tabları


ensiferum13

Önerilen Mesajlar

E||---5---5------5----5----|--5---5------5----5----|

B||---6---6------6----6----|--6---6------6----6----|

G||*--7---7------7----7----|--7---7------7----7----|

D||*--7---7------7----7----|--7---7---7--7----7----|

A||---5---5---5------------|--5---5---5------------|

E||------------------------|-----------------------|

 

 

 

--5---5-------5-5-x-x-5-5---|--5---5-------5-5-x-x-5---x--|

--6---6-------6-6-x-x-6-6---|--6---6-------6-6-x-x-6-6-x--|

--7---7-------7-7-x-x-7-7---|--7---7-------7-7-x-x-7-7-x--|

--7---7---7-7-7-7-x-x-7-7---|--7---7---7-7-7-7-x-x-7-7-x--|

--5---5---5-5---------------|--5---5---5-5-----5-5-----5--|

----------------------------|-----------------------------|

 

 

 

--5--5-5------5----5----|--5---5------5----5----|--5---5-------5-5-x-x-5-5---|

--6--6-6------6----6----|--6---6------6----6----|--6---6-------6-6-x-x-6-6---|

--7--7-7------7----7----|--7---7------7----7----|--7---7-------7-7-x-x-7-7---|

--7--7-7------7----7----|--7---7---7--7----7----|--7---7---7-7-7-7-x-x-7-7---|

--5--5-5---5------------|--5---5---5------------|--5---5---5-5---------------|

------------------------|-----------------------|----------------------------|

 

 

 

--5---5-------5-5-x-x-5---x--|--5--5-5------5----5----|--5---5------5----5----|

--6---6-------6-6-x-x-6-6-x--|--6--6-6------6----6----|--6---6------6----6----|

--7---7-------7-7-x-x-7-7-x--|--7--7-7------7----7----|--7---7------7----7----|

--7---7---7-7-7-7-x-x-7-7-x--|--7--7-7------7----7----|--7---7---7--7----7----|

--5---5---5-5-----5-5-----5--|--5--5-5---5------------|--5---5---5------------|

-----------------------------|------------------------|-----------------------|

 

 

 

--5---5-------5-5-x-x-5-5---|--5---5-------5-5-x-x-5---x--|

--6---6-------6-6-x-x-6-6---|--6---6-------6-6-x-x-6-6-x--|

--7---7-------7-7-x-x-7-7---|--7---7-------7-7-x-x-7-7-x--|

--7---7---7-7-7-7-x-x-7-7---|--7---7---7-7-7-7-x-x-7-7-x--|

--5---5---5-5---------------|--5---5---5-5-----5-5-----5--|

----------------------------|-----------------------------|

 

 

 

--5---5-x------5----5----|--5---5-5----5---x-5--0--|

--6---6-x------6----6----|--6---6-6----6---6-6--0--|

--7---7-x------7----7----|--7---7-7----7---7-7--0--|

--7---7-x------7----7----|--7---7-7----7---7-7--0--|

--5---5-x--5-5-5---------|--5---5------5---5-5-----|

-------------------------|-------------------------|

 

 

 

--3-3-3-3-3-----3-----3--3-3-|--3-3-3--3------3------3--3-3-|

--3-3-3-3-3-----3-----3--3-3-|--3-3-3--3------3------3--3-3-|

--4-4-4-4-4-----4--4--4--4-4-|--4-4-4--4------4------4--4-4-|

--5-5-5-5-5--5--5--5--5--5-5-|--5-5-5--5--5-5-5--5-5-5--5-5-|

-----------------------------|------------------------------|

-----------------------------|------------------------------|

 

 

 

--3-3-3--3-----3--3-3-3--3-3-|--3-3-3--3-----3----7----|

--3-3-3--3-----3--3-3-3--3-3-|--3-3-3--3-----3----8----|

--4-4-4--4-----4--4-4-4--4-4-|--4-4-4--4-----4----7----|

--5-5-5--5--5--5--5-5-5--5-5-|--5-5-5--5--5--5---------|

-----------------------------|-------------------------|

-----------------------------|-------------------------|

 

 

 

--5---5-5---------10----8----|--10---10---8--8--7-7-7--0--|-------------------|

--6---6-6---------10--0-8--0-|--10---10---8--8--8-8-8--0--|-------------------|

--7---7-7---------10----7--0-|--10---10---9--9--7-7-7--0--|--2----------------|

--7---7-7--0-0-0-------------|----------------------------|--3----------------|

-----------------------------|----------------------------|--3----------------|

-----------------------------|----------------------------|--1----------------|

 

 

 

-------------------|--5-5--5-5-----5-5----5-5----|--5-5--5-5------5-5---5------|

-------------------|--5h6--6-6-----6-6h5--6-6h5--|--5h6--6-6------6-6---6--0-0-|

--0----------------|--5h7--7-7--5--7-7h5--7-7h5--|--5h7--7-7--7-7-7-7---7--0-0-|

--2----------------|-----------------------------|-----------------------------|

--3----------------|-----------------------------|-----------------------------|

-------------------|-----------------------------|-----------------------------|

 

 

 

-------------------|-------------------|--5----------------|-----------||

-------------------|-------------------|--6----------------|-----------||

--2----------------|--0----------------|--7----------------|----------*||

--3----------------|--2----------------|--7----------------|----------*||

--3----------------|--3----------------|--5----------------|-----------||

--1----------------|-------------------|-------------------|-----------||

 

 

solo kısmında da ilk 3 tabdaki ritm atılarak soloya eşlik edilir ve parca biter.

Yorum bağlantısı
Diğer sitelerde paylaş

Sohbete katıl

Şimdi mesaj yollayabilir ve daha sonra kayıt olabilirsiniz. Hesabınız varsa, şimdi giriş yaparak hesabınızla gönderebilirsiniz.

Misafir
Bu konuyu yanıtla...

×   Farklı formatta bir yazı yapıştırdınız.   Lütfen formatı silmek için buraya tıklayınız

  Only 75 emoji are allowed.

×   Bağlantınız otomatik olarak gömülü hale getirilmiştir..   Bunun yerine bağlantı şeklinde gösterilsin mi?

×   Önceki içeriğiniz geri yüklendi.   Düzenleyiciyi temizle

×   You cannot paste images directly. Upload or insert images from URL.

  • Similar Topics

    • Pink Martini Türkiye'ye geliyor

      “Sympathique”, “Hang on Eugene!”, “Splendor in the Grass”, “Joy to the World”, “1969”, “A Retrospective”, “Get Happy”, “Dream A Little Dream” ve “Je Dis Oui” albümleriyle Türkiye’de büyük bir hayran kitlesine sahip olan, her albümü ile altın ve platin plak kazanan Pink Martini, dünya turnesi kapsamında Pasion Turca organizasyonu ile 14-21 Mayıs tarihleri arasında Türkiye’deki hayranları ile buluşacak. En son yayınladıkları stüdyo albümleri “Je Dis Oui” de birbirinden güzel ve unutulmaz eserlerl

      , Yer: Pano

    • Klasik Gitar ve Elektro Gitar Dersi Ankara

      26 yıllık gitar hocasıyım. Sadece bu işi yapıyorum. Klasik Gitar, Pop Gitar ve Teori üzerine yayımlanmış 3 tane kitabım vardır. Detaylı bilgi için şu adresi ziyaret edebilirsiniz: www.gitardersiankara.com . Klasik gitar ve elektro gitarda; pop (akustik), fingerstyle, doğaçlama , blues, rock, jazz gitar dersleri veriyorum. Ayrıca ileri düzey ve elektro için teori ve armoni dersleri de veriyorum. Armoni, gamlar, bir şarkıda solo nasıl atılır, nasıl solo yazılır, şarkının tonu nedir, hangi akorla

      , Yer: Rock / Metal

    • Gitar Çalmayı Öğrenmek

      Senelerdir müzik ortamlarındayım ama şimdiye dek hiç gitar çalmakla ilgim olmamıştı... Hatta o kadar ilgim olmamış ki, etrafım müzisyenle dolu olmasına ve bir dönem konser organizasyonları vs ile uğraşan arkadaşlara yardım etmeme rağmen gitarın fretlere basılarak çalınmadığını dahi bilmiyormuşum Neyse bir başka başlıkta da belirttiğim üzere, bunca yıl sonra gitar çalmayı öğrenmeye karar verip konuyla ilgili araştırmalar yapmaya başladım. Elbette gitarın nasıl tutulduğunu, nasıl çalındığını, ako

      , Yer: Rock / Metal

    • Pink Floyd Videoları

      Hey sen, dışarıda soğukta bekleyen Yalnız başına ve çökmüş, beni hissedebiliyor musun? Hey sen, geçitte ayakta duran Kaşıntılı ayaklı, solgun gülüşlü, beni hissedebiliyor musun? Hey sen, ışığı yakmalarına yardımcı olma onlara Boyun eğme dövüşmeden. Hey sen, orada duran tek başına Çırılçıplak, telefonun yanında, bana dokunabilir misin? Hey sen, kulağını duvara dayamış duran Kendini çağıracak birini bekleyen, bana dokunabilir misin? Hey sen, taşı götürmeme yardım eder misin? Aç kalbini,

      , Yer: Videolar

    • Klasik Gitar ve Elektro Gitar Dersi Ankara

      22 yıllık gitar hocasıyım. Sadece bu işi yapıyorum. Basılı ve tüm Türkiye'de satılmakta olan bir gitar metodum vardır. Görmek için şu adresi ziyaret edebilirsiniz. www.gitardersiankara.com . İyi isimlerle çalıştım. Klasik gitar, elektro gitar ve pop gitar dersleri veriyorum. Ayrıca ileri düzey ve elektro için teori ve armoni dersleri de veriyorum. Tel: 0 532 407 95 69. e-mail: [email protected] web adresi: www.gitardersiankara.com

      , Yer: Jazz & Blues

×
×
  • Yeni Oluştur...