Jump to content

Anathema Bas Gitar Tabları


boogee

Önerilen Mesajlar

Angelica / Anathema

 

0:00 - 0:26 3 kere-akustik

----------------------------------------------

-------0---1---p0h1p0-------3---1p0-----1p0---

-0---2-----2----------2p0---0-------2---------

-2--------------------------------------------

----------------------------------------------

----------------------------------------------

 

0:27 - 0:39 1 kere- akustik

-----------------------------------

-----0-----------------------------

-2-------0---0---------------------

---------------4p0h4h5---4-2-(2)---

-----------------------------------

-----------------------------------

0:40 - 0:56 2 kere

--------------------------------------------------

-----------0---1---p0h1p0-------3---1p0-----1p0---

-4s2-0---2-----2----------2p0---0-------2---------

-----2--------------------------------------------

--------------------------------------------------

--------------------------------------------------

0:57 - 1:12

---------------------------------------------- gitar #1

-------0---1---p0h1p0-------3---1p0-----1p0---

-0---2-----2----------2p0---0-------2---------

-2--------------------------------------------

----------------------------------------------

----------------------------------------------

 

---------------------------------------------- gitar #2

--------------------------------------8s7-----

-5s2s4-----5----------------7-------------7---

----------------------------------------------

----------------------------------------------

----------------------------------------------

 

 

---------------------------------------------- gitar #1

-------0---1---p0h1p0-------3---1p0-----1p0---

-0---2-----2----------2p0---0-------2---------

-2--------------------------------------------

----------------------------------------------

----------------------------------------------

 

---------------------------------------------- gitar #2

--------------------------------------7-------

-----5-4------------------------9-------------

----------------------------------------------

----------------------------------------------

----------------------------------------------

 

1:13 - 1:24

-------------------------------------------------------------

-------------------------------------------------------------

--------7---7------------------------------------------------

-9---10---------10-9---7---9-10-9p7h9------7-----7h9-7s5-----

---------------------------------------10----9---------------

-------------------------------------------------------------

 

 

1:25 - 1:34

------------------------------------------------------------

------------------------------------------------------------

--------7---7---9-------------------------------------------

-9---10-----------9---7---9-10-9p7h9------7-----7h9-7s5-----

--------------------------------------10----9---------------

------------------------------------------------------------

*********************

 

Eternity Part 1 / Anathema

 

intro: [x3]

g|---------------------------------------------------------------|

D|---------------------------------------------------------------|

A|---------------------------------------------------------------|

E|--/5-5-5-5-5-5-5--1-1-1-1-1-1-1--0-0-0-0-0-0-0--1-1-1-1-1-1-1--|

fig 1: [x1]

g|-------------------------------------------------------------------

D|-------------------------------------------------------------------

A|---------7h8-8-8p7-7----------------------7h8-8-8-7-7-7-8p7-7-7-7--

E|--/5-7-8-------------/8-7-5-1-1-1-1/5-7-8--------------------------

 

------------------------------------------------------------------|

------------------------------------------------------------------|

-----------7h8-8-8-7-------------------------7h8-8-8-7-7-7-8-8-8--|

----/5-7-8-----------7-7h8-7-5-1-1-1-1/5-7-8----------------------|

 

fig 2: [x2]

g|---------------------------------------------------------------

D|---------------------------------------------------------------

A|------------5-5-5-5-5-----------5-5-5-5-5-----------8-8-8-8-8--

E|--5-5-5-5-5-----------5-5-5-5-5-----------5-5-5-5-5------------

 

-----------------------|

-----------------------|

--7-7-7-7-7-5-5-5-5-5--|

-----------------------|

fig 3: [x1]

g|------------------------------------------------/9-7-5-4p2--------

D|-----------------------------------------------------------3-3-3--

A|--------------5-5-5-5-5-5-------------5-5-5-5-5-------------------

E|--5-5-5-3h5-5-------------5-5-3h5-5-5-----------------------------

 

------4-5-4-2----------|---------------------------------------------

--2-2---------0-0-0-0--|---------------------------------------------

-----------------------|--------------5-5-5-------------------5-5-5--

-----------------------|--5-5-5-3h5-5-------3h5-5-5-5-5-3h5-5--------

 

----/9-7-5-4p2---3-------4-5-4-2----------|

---------------3---3-2-2---------0-0-0-0--|

--5---------------------------------------|

------------------------------------------|

fig 2. [x2]

 

fig 4: [x1]

g|-------------------------|---|---|------------------------------|

D|-------------------------|-%-|-%-|------------------------------|

A|--7-7-7-7-7-7-8-8-8-5-5--|-%-|-%-|--7-7-7-7-7-7-8-8-8-10-10-10--|

E|-------------------------|---|---|------------------------------|

 

fig 3: [x1]

 

chorus 1: [x1]

g|--------2---------4-------/9-7-4-5-4-2-2-2--|-----2---------4------

D|--3-3-3---3-5-5-5---5-5-7-------------------|-3-3---3-3-5-5---5----

A|--------------------------------------------|----------------------

E|--------------------------------------------|----------------------

 

--------/9-7-4-5-4-2-2-2--|--------2-----------4----------/9-7-4-5-4-2--

--5/7-7-------------------|--3-3-3---3-3-5-5-5---5--5/7-7---------------

--------------------------|---------------------------------------------

--------------------------|---------------------------------------------

 

--2-2--|--2/9-7-5-42-0h2-2--|--2-/9-7-4-5-4-2-2-2---------------------|

-------|---------------------|---------------------3-3-3-3-3-5-5-5-5-5-|

-------|---------------------|-----------------------------------------|

-------|---------------------|-----------------------------------------|

 

fig 5: [x1]

g|----------------------------------------------|--------------------

D|--7-7-7-7-7-7---------------------------------|--------------------

A|--------------/8-8-8-8-8-8p7-7-7-7-7h8-8-8-8--|----------/8-8-8-8--

E|----------------------------------------------|--5-5-5-5-----------

 

-----------------------|---|---|

-----------------------|-%-|-%-|

--8p7-7-7-7-7h8-8-8-8--|-%-|-%-|

-----------------------|---|---|

 

fig 6: [x1]

g|---------------------------------------------------------------------

D|---------------------------------------------------------------------

A|--------7h8-8-8p7---------------------------7h8-8-8-8-8-8p7-7-7-7-7--

E|--5-7-8-----------7-8-7-5-1-1-1-1-1-1/5-7-8--------------------------

 

---------------|

---------------|

--7-8-8-8-8-8--|

---------------|

chorus 2: [x1]

g|------------------------5-5-5-7-7---/9-7-4-5-4-2-2-2--|------

D|--3-3-3-5-5-5-7-7-5-5-5-----------7-------------------|-3-3--

A|------------------------------------------------------|------

E|------------------------------------------------------|------

 

--2---------4---------/9-7-4-5-4-2-2-2--|--------2-----------4----

----3-3-5-5---5-5/7-7-------------------|--3-3-3---3-3-5-5-5---5--

----------------------------------------|-------------------------

----------------------------------------|-------------------------

 

--------/9-7-4-5-4-2-2-2--|--2/9-7-5-42-0h2-2--|--2-/9-7-4-5-4-2-2-2--

--5/7-7-------------------|---------------------|----------------------

--------------------------|---------------------|----------------------

--------------------------|---------------------|----------------------

 

--|----------------|

--|--3-3-3-3-3-5---|

--|----------------|

--|----------------|

 

 

***********************

 

One Last Goodbye

 

Solo

|----------------------------------------------------------------------------|

|------------14-15-----------------------------------------------------------|

|-14~~----16-------14--12-11~--12-14-----------------------------------------|

|------------------------------------14~~-slide down--14bf(16)14~-12--------|

|---------------------------------------------------------------------14-----|

|----------------------------------------------------------------------------|

 

 

 

 

 

 

|----------------------------------------------------------------------------|

|----------------------------------------------------------------------------|

|----------------------------------------------------------------------------|

|-12h14~~-slide down-----12-14-12----12-14-14bf(16)14-12----12-14bf(16)14~--|

|----------------------14----------14---------------------14-----------------|

|----------------------------------------------------------------------------|

 

 

 

 

 

|---------------------------------------------------------17~-15h17p15p14----|

|---------------------------17-------17----17----17----17-----------------15-|

|--------------------14-14~----14-14----14----14----14-----------------------|

|-12-12h1412p11--------------------------------------------------------------|

|---------------12~----------------------------------------------------------|

|----------------------------------------------------------------------------|

 

 

 

 

 

|----------------------------------------------------------------------------|

|----------------------------------------------------------------------------|

|-14bf(16)14~~---12-11-----(11bh)12backto11-----12-11------------------------|

|----------------------14~------------------14~-------12~-14p12p11~--119~---|

|----------------------------------------------------------------------------|

|----------------------------------------------------------------------------|

Yorum bağlantısı
Diğer sitelerde paylaş

Sohbete katıl

Şimdi mesaj yollayabilir ve daha sonra kayıt olabilirsiniz. Hesabınız varsa, şimdi giriş yaparak hesabınızla gönderebilirsiniz.

Misafir
Bu konuyu yanıtla...

×   Farklı formatta bir yazı yapıştırdınız.   Lütfen formatı silmek için buraya tıklayınız

  Only 75 emoji are allowed.

×   Bağlantınız otomatik olarak gömülü hale getirilmiştir..   Bunun yerine bağlantı şeklinde gösterilsin mi?

×   Önceki içeriğiniz geri yüklendi.   Düzenleyiciyi temizle

×   You cannot paste images directly. Upload or insert images from URL.

  • Similar Topics

    • Baş meleklerin gücü tarot kartlarini bulamıyorum?

      Elinde olan ve kullanmayan varsa talibim

      , Yer: Tarot

    • Gnoxis'deki Baş Belanız Kim?

      evt arkadaslar geyigin sonu yok nasil olsa diyerek basliyoruz konumuza, bu konuda sitemizde size her konuda bela olan arkadaslarimizi degerlendiriyoruz. Hadi iyi Geyikler   ilk bas belasini ben yazim bari Rimmon

      , Yer: Forum Oyunları

    • Klasik Gitar ve Elektro Gitar Dersi Ankara

      26 yıllık gitar hocasıyım. Sadece bu işi yapıyorum. Klasik Gitar, Pop Gitar ve Teori üzerine yayımlanmış 3 tane kitabım vardır. Detaylı bilgi için şu adresi ziyaret edebilirsiniz: www.gitardersiankara.com . Klasik gitar ve elektro gitarda; pop (akustik), fingerstyle, doğaçlama , blues, rock, jazz gitar dersleri veriyorum. Ayrıca ileri düzey ve elektro için teori ve armoni dersleri de veriyorum. Armoni, gamlar, bir şarkıda solo nasıl atılır, nasıl solo yazılır, şarkının tonu nedir, hangi akorla

      , Yer: Rock / Metal

    • Gitar Çalmayı Öğrenmek

      Senelerdir müzik ortamlarındayım ama şimdiye dek hiç gitar çalmakla ilgim olmamıştı... Hatta o kadar ilgim olmamış ki, etrafım müzisyenle dolu olmasına ve bir dönem konser organizasyonları vs ile uğraşan arkadaşlara yardım etmeme rağmen gitarın fretlere basılarak çalınmadığını dahi bilmiyormuşum Neyse bir başka başlıkta da belirttiğim üzere, bunca yıl sonra gitar çalmayı öğrenmeye karar verip konuyla ilgili araştırmalar yapmaya başladım. Elbette gitarın nasıl tutulduğunu, nasıl çalındığını, ako

      , Yer: Rock / Metal

    • Anathema

      http://www.anathemafan.com/images/anasayfa1.jpg 1990 yılının yazında Liverpool merkezinde "Pagan Angel" adıyla beş arkadaş tarafından kuruldu... grupta - Vincent Cavanagh (chant + gitar) - Daniel "Danny" Cavanagh (gitar) - Jamie Cavanagh (bass) - Les Smith (klavye) - John Douglas (bateri) göreviyle yer aldı death ten doom'a kayan bir tarzları vardı.. ve "An Iliad of Woes" demosunu kaydedildi 1991 yılında.. demoda; Memonto Mori , Echones Of Teror , In The Name Of the Father ,The Lord Of M

      , Yer: Biyografiler

×
×
  • Yeni Oluştur...