Jump to content

Almora


aLgoRmoRTiSs

Önerilen Mesajlar

CANDLE IN THE NIGHT

Intro : Dm-Bb-Gm-Bb-C-Dm

 

Dm

your way is flame with starlights

Bb Gm

your soul is song in the silence

Dm C

for love that inside of you

Bb

as calling of life...

A

as calling of life...

 

 

Dm

your soul that inside of you

Bb Gm

and your heart lonely in the night

Dm C

for light that inside of you

Bb

as calling of life...

A

as calling of life...

 

 

Dm

fly as an angel to the sky

Bb

you need only force of your heart

Gm

your little crying heart

Bb C Dm

as a candle in the night

CEHENNEM GECELERİ

intro -gitar I

--------------------------------------------------------I--------------

--------------------------------------------------------I--------------

--------------------------------------------------------I--------------

--------------------------5------------------------6--3-I-x-x-6-x-x-6--

--------------------------5------------------------6--3-I-x-x-6-x-x-6--

--3--3-3--3--3-3--3--3-3--3--3--3-3--3--3-3--3-3-3-4--1-I-x-x-4-x-x-4--

" " " " " " " " " " " " " " " " " "

p.m

 

 

intro-gitar II

----------------------------------------------------------------------

----------------------------------------------------------------------

--5-4--4---------7-5--5-4-------5-4--4---------------4-5--4-5--7-8----

---------6-5-------------6-5----------6-5---5-6--5-6------------------

----------------------------------------------------------------------

----------------------------------------------------------------------

 

 

----------------------------------------------------------------------

----------------------------------------------------------------------

-7-8--5-4-------------------------------------------------------------

----------6-----------------------------------------------------------

----------------------------------------------------------------------

----------------------------------------------------------------------

 

intro2-gitar I

-------------------I---------I------------------------------------------

-------------------I---------I------------------------------------------

-------------------I---------I------------------------------------------

--5----------------I--6---3--I------6-------6---3-3--5------------------

--5----------------I--6---3--I------6-------6---3-3--5------------------

--3-3--3-3--3--3-3 I--4---1--I--4-4-4---4-4-4---1-1--3------------------

" " " " " " " " " "

 

intro2-gitar II

----------------------------------------------------------------------

----------------------------------------------------------------------

----7--5-4--5-4----------------7--5-7--8-7-5--5-4---------------------

--5-------------6--6-5-3-5---5--------------------6-5-----------------

----------------------------------------------------------------------

----------------------------------------------------------------------

 

 

----------------------------------------------------------------------

----------------------------------------------------------------------

---7--5-4--5-4--------------------------------------------------------

--5-----------6--6-5-3-5--6-6-6--6-6-6--4-4--5------------------------

----------------------------------------------------------------------

----------------------------------------------------------------------

 

 

intro 2-yan flüt

----------------------------------------------------------------------

----------------------------------------------------------------------

---7--5-4--5-4-----5-4------------------------------------------------

--5------------6-5-----6-5--------------------------------------------

----------------------------------------------------------------------

----------------------------------------------------------------------

 

 

sözler riff A A ile birlikte-yan flüt

----------------------------I--------------- ---------------------------

----------------------------I--------------- ---------------------------

----------------------------I--------------- -5-4--5-4------------------

--5---5-5---5--5-5-------6--I-X-x-6--x-x-6-- ----6----6--5--------------

--5---5-5---5--5-5-------6--I-x-x-6--x-x-6-- ---------------------------

--3---3-3---3--3-3-------4--I-x-x-4--x-x-4-- ---------------------------

" " " " " "

 

1-Ve cehennemden bir gece daha

3-Nefret oyununda bir perde daha

 

 

 

----------------------------------------------------------------------

----------------------------------------------------------------------

----------------------------------------------------------------------

--5--5-5--5--5-5-----6--6-6--6--6-6---3--3-3--3-3-3---5---------------

--5--5-5--5--5-5-----6--6-6--6--6-6---3--3-3--3-3-3---5---------------

--3--3-3--3--3-3-----4--4-4--4--4-4---1--1-1--1-1-1---3---------------

" " " " " " " " " " " " " " " " " "

 

2-Utanır, utanır insanlığım bu çirkin karanlıktan

4-Yorulur, yorulur ruhumuz bu kızıl günahlardan

 

 

ara bölüm

B B ile çalınacak-yan flüt

------------ ----------------------------------------------------------

------------ ----------------------------------------------------------

------------ -----------4-5--4-5--7-8--7-8--5-4------------------------

--5------5-- --5-6--5-6-------------------------6----------------------

--5------5-- ----------------------------------------------------------

--3------3-- ----------------------------------------------------------

 

 

 

nakarat öncesi

----------------------------------------------------------------------

----------------------------------------------------------------------

----------------------------------------------------------------------

--5-----------6---------3--------5------------------------------------

--5-----------6---------3--------5------------------------------------

--3-----------4---------1--------3------------------------------------

Kan ve ateş küfrediyor tüm masallara

Yas tutuyor melekler karanlığımıza

Ve nasırlaşmış yüreğinle sen aciz dünya

GÜNEŞİN OZANLARI

intro D-A#-B#-E#-D-E#-G-E#-A#-B#-D

 

D

sen güneşin ozanlarını

A# B#

durdurabilir misin sandın?

D

rüzgarın şarkısını

E# B#

susturabilir misin sandın?

D

korkmuyorum şiddetinden

A# B#

ateş tutan ellerinden

D

ürkmüyorum nefretinden

E# B#

ve karanlık nefesinden

G

boyun eğmem asla sana

D

yaksan bile bedenimi

B#

ben doğarım küllerimden

E# E D

gücün varsa durdur beni!

 

kayaların ruhundamın ben,

yüzyılların öyküsü bende

otuzyedi güneşim var

ışıldar durur yüreğimde

 

tutamassın zincirlerinle

yıldızların ışığını

susturamassın nefretinle

güneşin ozanlarını

 

boyun eğmem asla sana

yaksan bile bedenimi

ben doğarım küllerimden

gücün varsa durdur beni!

İYİLER SİYAH GİYER

E5

Ruhumu bıraktım sert rüzgarlara

E5 D5

Şarkımı söyledim hür kartallara

E5

Kalbimi bıraktım kör zindanlarda

E5 D5

Ve bir savaşçı gibi durdum karşında.

 

E5

Hadi hapset beni kudretin yeterse

E5

Ördüğün oyuncak duvarlar içinde

A5 G5

Benzemez senin boyalı kahramanlarına

F5 E5

İyiler siyah giyer bunu unutma.

 

E5 D5

Benim özgürlüğe açılmış kanatlarım var

E5 D5

Sonsuzluğa çıkan zamansız kapılarım var

E5 D5

Senin beş para etmez kuralların varsa

F5 E5

Benim inandığım ölümsüz masallarım var..

KAF DAĞININ ARDINDA

Bm G

Gökyüzünün perdeleri,

A Bm

Açıl desem açılır mı?

D Em

Masalların ülkesine

G A Bm

Sonbaharda kar yağar mı?

G

Ak saçların vardı senin,

A Bm

Güneş gibi bir gülüşün

D Em

Senin için ağlamıştı

G A Bm

Irmakları gökyüzünün

 

 

D A

Şimdi buradan çok uzakta,

Em Bm

Rüzgarların tahtındasın

D A Em

Belki masal diyarlarda,

G A Bm

Kaf dağının ardındasın

D A

Uyan, uyan uykulardan,

Em Bm

Sonsuz sırlar arasından

D A Em

Gökyüzünün kapısından

G A Bm

Bana yıldız toplar mısın

Yorum bağlantısı
Diğer sitelerde paylaş

NIGHTMARE

 

intro (solo gitar)

 

-0-0-1-0--0-5-0-0--1-0-0-3-0-0-5-5----0-0-1-0--0-5-0-0--1-0-0-3-0-0-0-

-------------------------------------------------------------------3--

----------------------------------------------------------------------

----------------------------------------------------------------------

----------------------------------------------------------------------

----------------------------------------------------------------------

 

intro(ritm gitar) bitirirken...

------------I--------------------------------------I--------------------

------------I--------------------------------------I--------------------

-9-------9--I-----9-9-----9-9-----9-9-----9-9--9-9-I--7----9------------

-9-------9--I-----9-9-----9-9-----9-9-----9-9--9-9-I--7----9------------

-7-------7--I-7-7-7-7-7-7-7-7-7-7-7-7-7-7-7-7--7-7-I--5----7------------

------------I--------------------------------------I--------------------

 

sözlerden önceki bölüm-riff I

----------------------------------------------------------------------

----------------------------------------------------------------------

-9---------------------------------------9----------------------------

-9------------------9--7-9-7--10-9-7-----9-----------------9--7-9-7---

-7--7-7-7-7-7-7-7-7------------------8---7-7-7-7-7-7-7-7-7------------

----------------------------------------------------------------------

' ' ' ' ' ' ' ' ' ' ' ' ' ' ' p.m

 

-------------------------------------------------I---------------------

-------------------------------------------------I---------------------

-------------9-----------------------------------I-7-------9-----------

--10-9-10-7--9-----------------9--7-9-7--10-9-7--I-7-------9-----------

-------------7-7-7-7-7-7-7-7-7-----------------8-I-5-5-5-5-7-7-7-7-----

-------------------------------------------------I---------------------

' ' ' ' ' ' ' ' ' ' ' ' ' '

 

----------------------------------------------------------------------

----------------------------------------------------------------------

-10-10-10-10-10-10----------------------------------------------------

-10-10-10-10-10-10----------------------------------------------------

-8---8--8--8--8--8----------------------------------------------------

----------------------------------------------------------------------

' ' ' ' ' '

 

sözler- riff II

----------------------------------------------------------------------

----------------------------------------------------------------------

--9---9-9-9-9-9-9-9-9-9---7&-9-10-----9--9-9-9-9-9-9-9-9-9-9-9-9-9----

--9---9-9-9-9-9-9-9-9-9---7&-9-10-----9--9-9-9-9-9-9-9-9-9-9-9-9-9----

--7---7-7-7-7-7-7-7-7-7---5&-7--8-----7--7-7-7-7-7-7-7-7-7-7-7-7-7----

----------------------------------------------------------------------

becomes the nightmare my soul is cold in the terrible night

infinite fear now it's controlling all my mind

 

-------------------I---------------------------------------------------

-------------------I---------------------------------------------------

-10-10-10--7-7-7-7-I--7--10--9-----------------------------------------

-10-10-10--7-7-7-7-I--7--10--9-----------------------------------------

--8--8--8--5-5-5-5-I--5---8--7-----------------------------------------

-------------------I---------------------------------------------------

this silence is wounding my heart

the fear that deep inside of my heart

 

nakarat(dk 1.18)

----------------------------------------------------------------------

----------------------------------------------------------------------

-9--------------------------------------------------------------------

-9--------------------------------------------------------------------

-7-7-7-7-7-7-7-7-7-7-7-7-7-7-7-7---8-8-8-8-8-8-8-8-8-8-8-8-8-8--------

----------------------------------------------------------------------

' ' ' ' ' ' ' ' ' ' ' ' ' ' ' ' ' ' ' ' ' ' ' ' ' ' ' ' '

the darkness is hurting my soul and it's scaring me like the ...

my shoulders are shivering with fear my soul is sailing to...

 

-------------I---------------------------------------------------------

-------------I---------------------------------------------------------

-------------I-9----7-------------------------9------------------------

-------------I-9----7----7-----5-------3------9-----------------9--7-9-

-5-5-5-5-5-5-I-7----5----7-----5-------3------7-7-7-7-7-7-7-7-7--------

-------------I-----------5-----3-------1-------------------------------

' ' ' ' ' ' ' ' ' ' ' ' ' '

dark tales and it's fading in the nightmare

far away

 

-----------------------------------------------------------------------

-----------------------------------------------------------------------

---------------9-------------------------------------9-----------------

-7--10-9-7-----9-----------------9--7-9-7--10-9-10---9-----------------

-----------8---7-7-7-7-7-7-7-7-7---------------------7-7-7-7-7-7-7-7-7-

-----------------------------------------------------------------------

' ' ' ' ' ' ' ' ' ' ' ' ' ' '

----------------------------------------------------------------------

----------------------------------------------------------------------

----------------------7-------9-------10-10-10-10-10-10---------------

-9--7-9-7--10-9-7-----7-------9-------10-10-10-10-10-10---------------

------------------8---5-5-5-5-7-7-7-7--8--8--8--8--8--8---------------

----------------------------------------------------------------------

' ' ' ' ' ' ' ' ' ' ' '

PRINCESS OF RAIN

Am F Am

I close my eyes in the silence of the night

Am C G Am

I hear your voice in the whisper of the rain in my heart

 

Am F Am

I think of those thousands of dark rainy nights

Am C G Am

I dream of your face among the lightning flashes in the sky

 

C G Am

My steel-rose, give me your light

F C G Am

All i need is you; hear the cry of my heart

 

C G Am

Give me the scent of your rain

C G Am

Touch my tears and kill my pain

Dm F Am

Send me an angel for luck from your heart

F Am C G Am

Give me your rain forever, princess of rain

C G Am

Forever, princess of rain

 

SHEHRAZAD

intro

------------------------------------------------------I----------------

------------------------------------------------------I----------------

------------------------------------------------------I----------------

--------------9-9-9--9-9-9---------------9-9-9--9-9-9-I----------------

-6-7-9--7-6---9-9-9--9-9-9--6-7-9--7-6---9-9-9--9-9-9-I----------------

------------8-7-7-7--7-7-7-------------8-7-7-7--7-7-7-I-8-10-8--7-8----

ı ı ı ı ı ı ı ı ı ı ı ı

pm

 

--------------------------------------I--------------------------------

--------------------------------------I--------------------------------

--------------------------------------I--------------------------------

---------------------------------8-9--I--------------------------------

-----------------------6-7--9-10------I--------------------------------

-5-7--5-7--5-7-8---7-8----------------I--------------------------------

ı ı ı ı ı ı ı

 

 

 

söz kısımları

----------------------------------------------------------------------

----------------------------------------------------------------------

-11-11------------------11--11-----------9-9-------------9-9----------

-11-11------------------11--11-----------9-9-------------9-9----------

--9--9-------------------9---9-----------7-7-------------7-7----------

----------------------------------------------------------------------

She tells........land of the fairies From land....and from the....

Tales of angels tales of demons Darkness of hell lights of heaven

 

 

 

 

 

2X (A)

--------------------------------------------------------I--------------

--------------------------------------------------------I--------------

--------------------------------------------------------I--------------

-9-9-9--9-9-9-9-9-9-9---10-10-10-10-10-10--7-7-7-7-7-7--I--------------

-9-9-9--9-9-9-9-9-9-9---10-10-10-10-10-10--7-7-7-7-7-7--I--------------

-7-7-7--7-7-7-7-7-7-7----8--8--8--8--8--8--5-5-5-5-5-5--I--------------

 

She enchanted the sultan with her magic stories

And each night she told him the tales as the dreams

She was the beautiful like the voice of the rain

Hate of the sultan ends the cause shehrazad's tales

 

 

 

 

nakarat

----------------------------------------------------------------------

----------------------------------------------------------------------

----------------------------------------------------------------------

-9-9-9-9-9-9--10-10-10-10-10-10--7-7-7-7-7-7---10-10-10--8-8--9-------

-9-9-9-9-9-9--10-10-10-10-10-10--7-7-7-7-7-7---10-10-10--8-8--9-------

-7-7-7-7-7-7---8--8--8--8--8--8--5-5-5-5-5-5----8--8--8--6-6--7-------

ı ı ı ı ı ı ı ı ı ı ı ı ı ı ı

pm

 

TEARS OF THE ANGELS

 

gitar I (keman- solo) ilk bölüm

----------------------------------------------------------------------

-------------------------------------6-8--------6---------------------

---&7--8-5-7--5-4--5-7------7----7-8-----8-7--8---7-5--5---7-5---5----

----------------------6-5------5-------------------------8-----8---6--

----------------------------------------------------------------------

----------------------------------------------------------------------

 

 

----------------------------------------------------------------------

----------------------------------------------------------------------

--------------5-------------------------------------------------------

--5-6--8-7-8----6-6--5-5----------------------------------------------

----------------------------------------------------------------------

----------------------------------------------------------------------

 

solo ikinci bölüm

 

--16-15-15---------13-------------------------16-15-15---------13-----

-----------15-15-16---16-16-15-15-13-12-13-15----------15-15-16-------

----------------------------------------------------------------------

----------------------------------------------------------------------

----------------------------------------------------------------------

----------------------------------------------------------------------

 

 

------------------------------13--------------------------------------

-16-16-15-15-13-12-13-16---16----16--13-16--------------13------------

-------------------------------------------13--15-14-15----13-13-12-12

----------------------------------------------------------------------

----------------------------------------------------------------------

----------------------------------------------------------------------

 

 

gitar II-ritm (giriş)

----------------------------------------------------------------------

----------------------------------------------------------------------

----------------------------------------5-4---5-4---------------------

--5--5-5-x-5-5--6-6-6--3-3-3---5-5-5-x------6-----6--5-5-5-x-5-5--6-6-

--5--5-5-x-5-5--6-6-6--3-3-3---5-5-5-x---------------5-5-5-x-5-5--6-6-

--3--3-3-x-3-3--4-4-4--1-1-1---3-3-3-x---------------3-3-3-x-3-3--4-4-

 

 

----------------------------------------------------------------------

----------------------------------------------------------------------

------------5-4---5-4-------------------------------------------------

--6--3-3-3------6-----6--5-6-3----------------------------------------

--6--3-3-3------------------------------------------------------------

--4--1-1-1------------------------------------------------------------

 

riff

----------------------------------------------------------------------

----------------------------------------------------------------------

----------------------------------------------------------------------

--5--5-5-5--5-5-5--5-5-5--5-5-5---3---5---5-5-5--5-5-5--5-5-5---------

--5--5-5-5--5-5-5--5-5-5--5-5-5---3---5---5-5-5--5-5-5--5-5-5---------

--3--3-3-3--3-3-3--3-3-3--3-3-3---1---3---3-3-3--3-3-3--3-3-3---------

" " " " " " " " " " " " " " " " " " " " "

p.m

 

----------------------------------------------------------------------

----------------------------------------------------------------------

----------------------------------------------------------------------

-6------8------10--10-10-10--10-10-10----6----8----10----6----5-------

-6------8------10--10-10-10--10-10-10----6----8----10----6----5-------

-4------6-------8--8---8--8---8--8--8----4----6----8-----4----3-------

" " " " " "

 

TILSIM

 

E-----------------------------------2-5-2-0--3------------- )

B--3-5-2-3---2------3-5-2-3---0-2-3-------------3-2-------- )

G-------------2-4-----------------------------------2-4---- ) 3 Defa

D---------------------------------------------------------- )

A---------------------------------------------------------- )

E---------------------------------------------------------- )

 

 

Bm A G A Bm

Zamanın gözlerinde,eski bir tılsım

Bm A D A Bm

Masalların sırrını fısıldıyor

Bm A G A Bm

İnsanoğlu görmüyor istemedikçe

Bm A D A Bm

Belki de kendi rüyasından korkuyor

 

G A Bm

Oysa ki kaybetse de tüm savaşları

G A Bm

İnandığı masallar kadar yaşıyor

 

Bm G

Birgün gelir,biter bu hikaye

Bm A G A Bm

Rüyaların seni terkettiğinde

Bm G

Gömülürsün kalbindeki

Bm A G A Bm

Cennet ya da cehenneme

Yorum bağlantısı
Diğer sitelerde paylaş

Sohbete katıl

Şimdi mesaj yollayabilir ve daha sonra kayıt olabilirsiniz. Hesabınız varsa, şimdi giriş yaparak hesabınızla gönderebilirsiniz.

Misafir
Bu konuyu yanıtla...

×   Farklı formatta bir yazı yapıştırdınız.   Lütfen formatı silmek için buraya tıklayınız

  Only 75 emoji are allowed.

×   Bağlantınız otomatik olarak gömülü hale getirilmiştir..   Bunun yerine bağlantı şeklinde gösterilsin mi?

×   Önceki içeriğiniz geri yüklendi.   Düzenleyiciyi temizle

×   You cannot paste images directly. Upload or insert images from URL.

  • Similar Topics

    • Almora

      ALMORA     Senfonik Rock Orkestrası Almôra, 2001 yılında Soner Canözer tarafından kuruldu. Almôra, 2002 yılında yayınlanan “Standing Still & Cyrano” E.P.si ve yine aynı yıl içerisinde yayınlanan debut albümü “Gates of Time” ile büyük başarı yakaladı. Basın ve radyolar tarafından da ilgi gören bu albüm, bazı gazete ve dergilerde 2002 yılının en iyi on albümü arasında gösterildi. Almôra, aynı yıl içerisinde Kemancı Zine dergisi tarafından dinleyici oyları ile belirlenen “Yılın Yeni Topluluğu”

      , Yer: Biyografiler

    • Almora Şarkı Sözleri

      Güneşin Ozanları   Sen güneşin ozanlarını Durdurabilir misin sandın? Rüzgarın şarkısını Susturabilir misin sandın?   Korkmuyorum şiddetinden Ateş tutan ellerinden Ürkmüyorum nefretinden Ve karanlık nefesinden   Boyun eğmem asla sana Yaksan bile bedenimi Ben doğarım küllerimden Gücün varsa durdur beni!   Kayaların ruhundanım ben, Yüzyılların öyküsü bende Otuzyedi güneşim var Işıldar durur yüreğimde   Tutamassın zincirlerinle Yıldızların ışığını Susturamassın

      , Yer: Şarkı Sözleri

    • Almora Videoları

      Walla tanıtım kısmını falan yapmak isteyen olursa yazsın kimler neciler ben klipleri ekliim de:)Şu an uzakta olan biri bu grubu bayaa sewiyor...Onun için de olsun(hatta bayaa onun için de olsun) bu klipler:)Ha bazılarında şarkı ve fotolar olabilir idare edin:)                   Bakmadan bakmadan koydum umarım aynı şarkıları falan koymamışımdır:D Artık bi hata varsa affola:p

      , Yer: Videolar

×
×
  • Yeni Oluştur...