2 Sayfadan 1. 12 SonSon
Toplam 12 sonuçtan 1 ile 10 arasındakiler gösteriliyor.

Konu: Slayer Akorları

  1. #1
    Slayer Akorları nevermore - ait Kullanıcı Resmi (Avatar)
    Üyelik tarihi
    Mar-2009
    Bulunduğu yer
    Bornova
    Mesajlar
    12.313
    Konular
    2869

    Slayer Akorları


    Kutsanmış grup SLAYER ve zamanında marş olmuş Raining Blood!!



    Tune down 1 half step:
    Eb Ab Db Gb Bb Eb

    Intro: w/ sound efx


    e-----------------------------------------------------------------

    b-----------------------------------------------------------------
    g-----------------------------------------------------------------
    d-----------------------------------------------------------------
    a-----------------------------------------------------------------
    e-0---------------------------------------------------------------

    Riff A:


    e-----------------------------------------------------------------

    b-----------------------------------------------------------------
    g-----------------------------------------------------------------
    d---------8-9-8-----8-7-----7-6-------------8-9-8-----8-7-----7-6-
    a-------7---------9-------8---------------7---------9-------8-----
    e-0-0-0-----------------------------0-0-0-------------------------

    2 Gtrs


    e-----------------------------------------------------------------

    b-----------------------------------------------------------------
    g---------8-9-8-----8-7-----7-6-------------8-9-8-----8-7-----7-6-
    d-------7-8-9-8---9-8-7-----7-6-----------7-8-9-8---9-8-7---8-7-6-
    a-------7---------9-------8---------------7---------9-------8-----
    e-0-0-0-----------------------------0-0-0-------------------------

    Both Gtrs


    e-----------------------------------------------------------------

    b-----------------------------------------------------------------
    g-----------------------------------------------------------------
    d-----------------------------------------------------------------
    a-----------------------------------------------------------------
    e-0-0--0--0-0--0--0-0--0--0-0--0--0-0--0--0-0--0--0-0--0--0-0--0--


    e-----------------------------------------------------------------

    b-----------------------------------------------------------------
    g-----------------------------------------------------------------
    d---------------------------------------------3--2----------------
    a------------------------------------------4--------3--2----------
    e-0-0--0--0-0--0--0-0--0--0-0--0--0--2--4-------------------------

    Really fuckin’ fast


    x2

    e-----------------------------------------------------------------
    b-----------------------------------------------------------------
    g-----------------------------------------------------------------
    d-----------------------------------------------------------------
    a-----------------------------------------------------------------
    e-5-3-2-0-6-5-3-0-5-3-2-0-6-5-3-0-5-3-2-0-6-5-3-0-5-3-2-0-6-5-3-0-

    x3

    e-----------------------------------------------------------------
    b-----------------------------------------------------------------
    g-----------------------------------------------------------------
    d--------------------------------------------------3--------------
    a--------------------------------------------------1--------------
    e-5-3-2-0-6-5-3-0-5-3-2-0-6-5-3-0-5-3-2-0-6-5-3-0-----------------

    e-----------------------------------------------------------------

    b-----------------------------------------------------------------
    g-----------------------------------------------------------------
    d-----------------------------------------------------------------
    a--------------------------------------------------5----8---------
    e-5-3-2-0-6-5-3-0-5-3-2-0-6-5-3-0-5-3-2-0-6-5-3-0--3----6---------

    Verses:


    e-----------------------------------------------------------------

    b-----------------------------------------------------------------
    g-----------------------------------------------------------------
    d-----------------------------------------------------------------
    a---------------10--14--13-------------------9--9--12-------------
    e-0---0-0--0--0--8--12--11----0---0-0--0--0--7--7--10-------------

    Interlude:


    e-----------------------------------------------------------------

    b-----------------------------------------------------------------
    g-----------------------------------------------------------------
    d----------------------------------------8-7--88888888888888------
    a--------------7h10p8p7-8----------7--10------66666666666666--7-7-
    e-0--0--0--0---------------0--0--0----------------------------5-5-

    Bridge:


    e-----------------------------------------------------------------

    b-----------------------------------------------------------------
    g-----------------------------------------------------------------
    d-----------------------------------------------------------------
    a-2-2----2-2----2-2----2-2----2-2----2-2----2-2----2-2----2-2-----
    e-0-0----0-0----0-0----0-0----0-0----0-0----0-0----0-0----0-0-----

    Riff over bridge:


    e-----------------------------------------------------------------

    b-----------------------------------------------------------------
    g-----------------------------------------------------------------
    d--------9---------8---------7------------------------------------
    a---7-10------7-10------7-10------7-10-9--------------------------
    e-7---------7---------7---------7---------------------------------

    Chorus:


    e-----------------------------------------------------------------

    b-----------------------------------------------------------------
    g-----------------------------------------------------------------
    d-----------------------------------------------------------------
    a-----5-9-----5-8-----5-7-----5-4-----5-9-----5-8-----5-7-----5-4-
    e-0-0-3-7-0-0-3-6-0-0-3-5-0-0-3-2-0-0-3-7-0-0-3-6-0-0-3-5-0-0-3-2-

    ...blood!...


    x2

    e-----------------------------------------------------------------
    b-----------------------------------------------------------------
    g-----------------------------------------------------------------
    d-----------------------------------------------------------------
    a-----------------------------------------------------------------
    e-0-0-0-0-0-0-0-0-0-0-0-0-0-0-0-0-0-0-0-0-0-0-0-0-0-0-0-0-0-0-0-0-

    Outro: pm


    x2

    e-----------------------------------------------------------------
    b-----------------------------------------------------------------
    g-----------------------------------------------------------------
    d-----------------------------------------------------------------
    a-----------------------------------------------------------------
    e-0-0-0-0-1-1-7-7-6-6-6-3-3-3-3-3-0-0-0-0-1-1-7-7-6-6-6-3-3-3-3-3-

    e-----------------------------------------------------------------

    b-----------------------------------------------------------------
    g-----------------------------------------------------------------
    d-----------------------------------------------------------------
    a-----------------------------------------------------------------
    e-4-4-4-4-4-4-8-8-7-7-7-7-7-7-8-8-4-4-4-4-4-4-8-8-7-7-7-7-7-7-8-8-

    e-----------------------------------------------------------------

    b-----------------------------------------------------------------
    g-----------------------------------------------------------------
    d-----------------------------------------------------------------
    a-----------------------------------------------------------------
    e-0-0-0-0-1-1-7-7-6-6-6-3-3-3-3-3-0-0-0-0-1-1-7-7-6-6-6-3-3-3-3-3-

    e-----------------------------------------------------------------

    b-----------------------------------------------------------------
    g-----------------------------------------------------------------
    d-----------------------------------------------------------------
    a-----------------------------------------------------------------
    e-0-0-0-0-0-0-0-0-0-0-0-0-0-0-0-0-0-0-0-0-0-0-0-0-0-0-0-0-0-0-0-0-


    Trapped in purgatory
    A lifeless object, alive
    Awaiting reprisal
    Death will be their acquisition

    The sky is turning red
    Return to power draws near
    Fall into me, the sky's crimson tears
    Abolish the rules made of stone

    Pierced from below, souls of my treacherous past
    Betrayed by many, now ornaments dripping above

    Awaiting the hour of reprisal
    Your time slips away

    Raining blood
    From a lacerated sky
    Bleeding its horror
    Creating my structure
    Now i shall reign in blood!

    ........................................ ..........

    Tuzak vardı acı çekilen dönemde
    Ölü bir madde canlıydı
    Müzik parçasını beklerken
    Ölüm onların kazancı olacak

    Gökyüzü kırmızılaşıyor
    Yanında duran güce geri dön
    Bana gel gökyüzünün koyu kırmızı gözyaşları
    Taşın kurallarını durdur

    Benim geçmişteki hainlerimin ruhunu delerek geç
    Yukarda damlayan süslere ihanet ederek

    Müziği beklerken zamanın azalıyor

    Parçalanmış gökyüzünden kan yağıyor
    Kendi korkusuyla kanıyor
    Bünyemi yaratıyor

    Şimdi kendimi kanda bulayım!





  2. #2
    Logii - ait Kullanıcı Resmi (Avatar)
    Üyelik tarihi
    May-2009
    Bulunduğu yer
    Tekirdağ
    Mesajlar
    234
    Konular
    44
    Teşekkür ederim never.. Bende çalacak birşeyler arıyordum tam

  3. #3
    PuAlper - ait Kullanıcı Resmi (Avatar)
    Üyelik tarihi
    Oca-2010
    Bulunduğu yer
    Ordu/MERKEZ
    Mesajlar
    22
    Konular
    0
    sağlam rifler sağolasın

  4. #4
    Slayer Akorları nevermore - ait Kullanıcı Resmi (Avatar)
    Üyelik tarihi
    Mar-2009
    Bulunduğu yer
    Bornova
    Mesajlar
    12.313
    Konular
    2869
    Slayer - Angel Of Death


    Rhy Fig 1
    e:-------------------------------|-------------------------------|
    B:-------------------------------|-------------------------------|
    G:-------------------------------|-------------------------------|
    D:-------------------------------|-------------------------------|
    A:--2-------------------------3--|--3-------------------------4--|
    E:--0--0-0-0-0-0-0-0-0-0-0-0--1--|--1--0-0-0-0-0-0-0-0-0-0-0--2--|
    PM................... PM...................


    Rhy Fig 1 sonu
    e:----------------------------------|-------------------|
    B:----------------------------------|-------------------|
    G:----------------------------------|-------------------|
    D:----------------------------------|-------------------|
    A:--4-------------------------------|-----------7----6--|
    E:--2--0-0-0-0-0-0-0-0-0-0-0-0-0-0--|--1--0--1--5----4--|
    PM.........................


    w/Rhy Fig 1
    e:-----------------|-----------------|-----------------|-------------------|
    B:-----------------|-----------------|-----------------|-------------------|
    G:-----------------|-----------------|-----------------|-------------------|
    D:-----------------|-----------------|-----------------|-------------------|
    A:--2-----------3--|--3-----------4--|--4--------------|--3--2--3--7----6--|
    E:--0-----------1--|--1-----------2--|--2--------------|--1--0--1--5----4--|


    Rhy Fig 1A
    e:---------------------------------|--------------------------------|
    B:---------------------------------|--------------------------------|
    G:---------------------------------|--------------------------------|
    D:---------------------------------|--------------------------------|
    A:--2---------------------------3--|--3--------------------------4--|
    E:--0--0-0--0-0-0-0--0-0-0-0-0--1--|--1--0-0--0-0-0-0--0-0-0-0-0-2--|


    Rhy Fig 1A sonu
    e:-------------------------------------|-------------------|-----------------|
    B:-------------------------------------|-------------------|-----------------|
    G:-------------------------------------|-------------------|-----------------|
    D:-------------------------------------|-------------------|-----------------|
    A:--4----------------------------------|--3--2--3--7----6--|--19\------------|
    E:--2--0-0--0-0-0-0--0-0-0-0--0-0-0-0--|--1--0--1--5----4--|-----------------|



    w/Rhy. Fig. 1 & 1A (2 kez)


    Rhy Fig 2
    e:-----------------------------|-----------------------------|
    B:-----------------------------|-----------------------------|
    G:-----------------------------|-----------------------------|
    D:--3--------------------------|----------------3------------|
    A:--3--------------------------|--2-------------1------------|
    E:--1--------------------------|--0--0-0-0-0-0----0-0-0-0-0--|


    e:-------------------------|------------------------------|
    B:-------------------------|------------------------------|
    G:-------------------------|------------------------------|
    D:-------------------------|----------------3-------------|
    A:--2----------------------|--2-------------1-------------|
    E:--0--0-0-0-0-0--1--4--1--|--0--0-0-0-0-0-----0-0-0-0-0--|


    e:----------------------|-----------------------------|
    B:----------------------|-----------------------------|
    G:----------------------|-----------------------------|
    D:----------------3--6--|---------------3-------------|
    A:--2-------------3--6--|-2-------------1-------------|
    E:--0--0-0-0-0-0--1--4--|-0--0-0-0-0-0-----0-0-0-0-0--|


    e:-------------------------|------------------------------|
    B:-------------------------|------------------------------|
    G:-------------------------|------------------------------|
    D:-------------------------|----------------3-------------|
    A:--2----------------------|--2-------------1-------------|
    E:--0--0-0-0-0-0--1--4--1--|--0--0-0-0-0-0-----0-0-0-0-0--|


    Rhy Fig 2 sonu
    e:----------------------|
    B:----------------------|
    G:----------------------|
    D:----------------------|
    A:--2-------------7--8--|
    E:--0--0-0-0-0-0--5--6--|



    w/Rhy Fig 2

    Auschwitz, the meaning of pain,
    the way that I want you to die.
    Slow death, immense decay,
    showers that clense you of your life.


    w/ Rhy Fig 3
    Forced in like cattle you run,
    stripped of your lifes worth.
    Human mice for the angel of death
    Four hundred thousand more to die..


    Rhy Fig 3. Rhy Fig 3 sonu
    e:----------------------------------|---------------------------|
    B:----------------------------------|---------------------------|
    G:----------------------------------|---------------------------|
    D:----------------------------------|---------------------------|
    A:----------------------------------|------------------------4--|
    E:--1--1-1-1-1-1-1--2--1-1-1-1-1-1--|--3--1-1-1-1-1-1--4--1--2--|


    -nakarat-
    w/Rhy. Figs. 1 & 1A (2 kez)

    Angel of Death,
    monarch to the kingdom of the dead



    w/Rhy Fig 2 (2 kez)

    Sadistic surgeon of demise,
    sadist of the noblest blood.
    Destroying with out mercy,
    to benefit the Ayran Race.
    Surgery with no anesthesia,
    fell the knife pierce you intensly.
    Inferior, no use to mankind.
    Strapped down, screaming out to die..


    -nakarat-
    w/Rhy. Figs. 1 (3 times) & 1A (2 times)
    Angel of Death,
    monarch to the kingdom of the dead

    w/Rhy Fig 1B
    Infamous Butcher
    Angel of Death


    Rhy Fig 1B Infamous
    e:--------------------------------|---------------------------------|
    B:--------------------------------|---------------------------------|
    G:--------------------------------|---------------------------------|
    D:--9-------------------------10--|--10-------------------------11--|
    A:--7-------------------------8---|--8--------------------------9---|
    E:-----0-0-0-0-0-0-0-0-0-0-0------|------0-0-0-0-0-0-0-0-0-0-0------|


    Rhy Fig 1B sonu
    e:-----------------------------|-----------------------|
    B:-----------------------------|-----------------------|
    G:-----------------------------|-----------------------|
    D:--11-------------------------|--10--9--10--14----13--|
    A:--9--------------------------|--8---7--8---12----11--|
    E:------0-0-0-0-0-0-0-0-0-0-0--|-----------------------|


    e:----------------------|---------------------------|
    B:----------------------|---------------------------|
    G:----------------------|---------------------------|
    D:--3-------------------|---------------------------|
    A:--3-------------------|--7h8p7--------------------|
    E:--1-------------------|---------0--0--0--0--0--0--|


    e:-----------------------------|---------------------------|
    B:-----------------------------|---------------------------|
    G:-----------------------------|---------------------------|
    D:-----------------------------|---------------------6--5--|
    A:--6h7p6-----5h6p5-----4h5p4--|--7h8p7-----------7--------|
    E:---------0---------0---------|---------0--0--6-----------|


    e:--------------------------|---------------------------|
    B:--------------------------|---------------------------|
    G:--------------------------|---------------------------|
    D:-----------7--------9--8--|---------------------------|
    A:--6--7--8--------10-------|--7h8p7--------------------|
    E:--------------9-----------|---------0--0--0--0--0--0--|


    e:-----------------------------|---------------------------|
    B:-----------------------------|---------------------------|
    G:-----------------------------|---------------------8--7--|
    D:-----------------------------|------------------9--6--5--|
    A:--6h7p6-----5h6p5-----4h5p4--|--7h8p7--------8--7--------|
    E:---------0---------0---------|---------0--0--6-----------|

    Riff A
    e:------------------------------||----------------------------|
    B:------------------------------||----------------------------|
    G:------------9-----------------||*---------------------------|
    D:--8--9--10--7------11--10--9--||*---------------------------|
    A:--6--7--8------10--10--9---8--||---7h8p7--------------------|
    E:---------------9--------------||----------0--0--0--0--0--0--|


    e:-----------------------------|----------------------------|
    B:-----------------------------|----------------------------|
    G:-----------------------------|----------------------8--7--|
    D:-----------------------------|-------------------9--6--5--|
    A:--6h7p6-----5h6p5-----4h5p4--|--7h8p7---------8--7--------|
    E:---------0---------0---------|---------0--0---6-----------|

    End Riff A
    Play 3 times
    e:-------------------------------||---------------------------|
    B:-------------------------------||---------------------------|
    G:------------9----------10--9--*||---------------------------|
    D:--8--9--10--7------11--9---8--*||---------------------------|
    A:--6--7--8------10--10----------||--7h8p7--------------------|
    E:---------------9---------------||---------0--0--0--0--0--0--|


    e:-----------------------------|
    B:-----------------------------|
    G:-----------------------------|
    D:-----------------------------|
    A:--6h7p6-----5h6p5-----4h5p4--|
    E:---------0---------0---------|



    w/Rhy Fig 4 (3 ve 3 çeyrek kez)

    Pumped with fluid inside your brain.
    Pressure in your skull begins pushing through your eyes.
    Burning flesh drips away.
    Test of heat burns your skin, your mind starts boil.
    Frigid cold, cracks your limbs,
    How long can you last in this frozen water burial
    Sewn together, joining heads.
    Just a matter of time till you rip yourselves apart

    Rhy Fig 4
    e:-------------------------|----------------------|-------------------------|
    B:-------------------------|----------------------|-------------------------|
    G:-------------------------|----------------------|-------------------------|
    D:-------------------------|-----------------2--3-|-------------------------|
    A:--2--2--2--3--2----------|-----2--3--------0--1-|--2--2--2--3--2----------|
    E:--0--0--0--1--0--0--0--0-|--0--0--1--0--0-------|--0--0--0--1--0--0--0--0-|




    Rhy Fig 4 sonu
    e:--------------------------|
    B:--------------------------|
    G:--------------------------|
    D:--------------------------|
    A:--------------------------|
    E:--0--0--0--0--0--0--0--0--|



    Millions lais out in their crowded
    e:--------------------------|--------------------------|
    B:--------------------------|--------------------------|
    G:--------------------------|--------------------------|
    D:--------------------------|--------------------------|
    A:--3--3--3--3--3--3--3--3--|--6--6--6--6--5--5--5--5--|
    E:--1--1--1--1--1--1--1--1--|--4--4--4--4--3--3--3--3--|


    tombs sickening ways to
    e:------------------------|------------------------|------------------------|
    B:------------------------|------------------------|------------------------|
    G:------------------------|9------------6-----5----|------------------------|
    D:------------------------|6--10--8-----3--7--4--7\|------------------------|
    A:-2--2--2--3--2----------|----7--5--9-----4-----5\|-3--3--3--3--3--3--3--3-|
    E:-0--0--0--1--0--0--0--0-|----------6-------------|-1--1--1--1--1--1--1--1-|




    achieve the Holocaust
    e:--------------------------|
    B:--------------------------|
    G:--------------------------|
    D:--------------------------|
    A:--6--6--6--6--5--5--5--5--|
    E:--4--4--4--4--3--3--3--3--|


    w/Rhy Fig 4 (x2)
    e||-------------------------|----------------------|-------------------------|
    B||-------------------------|----------------------|-------------------------|
    G||*------------------------|----------------------|-------------------------|
    D||*------------------------|-----------------2--3-|-------------------------|
    A||-2--2--2--3--2-----------|-----2--3--------0--1-|--2--2--2--3--2----------|
    E||-0--0--0--1--0--0--0--0--|--0--0--1--0--0-------|--0--0--0--1--0--0--0--0-|





    e:--------------------------|| |---------------------------|
    B:--------------------------|| |---------------------------|
    G:-------------------------*|| |---------------10--9--14\--|
    D:-------------------------*|| |--------10--9--------------|
    A:--------------------------|| |--8--7---------------------|
    E:--0--0--0--0--0--0--0--0--|| |---------------------------|



    w/Rhy Fig 4 (3 ve 3 çeyrek kez)

    Seas of blood, bury life.
    Smell your death as it burns deep inside of you.
    Abacinate, eyes that bleed.
    Praying for the end of your wide awakw nightmare
    Wings of pain reach out for
    His face of death staring down, your blood's running cold.
    Injecting cells, dying eyes.
    Fedding on the screams of the


    mutants he's creating Pathetic harmless victims left
    e:----------------------------|---------------------|-----------------|
    B:----------------------------|---------------------|-----------------|
    G:--9------------6-----7------|---------------------|-----------------|
    D:--6--10--8-----3--8--4--8\--|---------------------|-----------------|
    A:------7--5--9-----5-----5\--|--3----3--3--3----3--|--6--6--6--6--5--|
    E:------------6---------------|--1----1--1--1----1--|--4--4--4--4--3--|


    to die
    e:--------------------------|----------------------------|
    B:--------------------------|----------------------------|
    G:--------------------------|--9------------6-----7------|
    D:--------------------------|--6--10--8-----3--8--4------|
    A:--2--2--2--3--2-----------|------7--5--9-----5-----8\--|
    E:--0--0--0--1--0--0--0--0--|------------6---------------|



    Half Time Feel
    Rancid angel of death flying
    e:-------------------------|------------------|
    B:-------------------------|------------------|
    G:-------------------------|------------------|
    D:-3-----------3-----------|--6--------5------|
    A:-3-----------3-----------|--4--------3------|
    E:-1--1--1--1--1--1--1--1--|--4--------3------|


    e:||----------------------------|-----------------------------|
    B:||----------------------------|-----------------------------|
    G:||*---------------------------|-----------------------------|
    D:||*---------------------------|-----------------------------|
    A:||---7h8p7--------------------|--6h7p6-----5h6p5-----4h5p4--|
    E:||----------0--0--0--0--0--0--|---------0---------0---------|


    e:|----------------------------|-------------------------------|
    B:|----------------------------|-------------------------------|
    G:|----------------------8--7--|------------9----------10--9--*|
    D:|-------------------9--6--5--|--8--9--10--7------11--9---8--*|
    A:|--7h8p7---------8--7--------|--6--7--8------10--10----------|
    E:|---------0--0---6-----------|---------------9---------------|



    e:----------------------------| |---------------------------|
    B:----------------------------| |---------------------------|
    G:----------------------------| |---------------------------|
    D:------------5---------------| |-----------7-----10--9-----|
    A:--6h7p6--------6-----4h5p4--| |--6--7--8------------------|
    E:---------0--------0---------| |--------------9---------7--|


    e:|---------------------------|-----------------------------|----------------|
    B:|---------------------------|-----------------------------|----------------|
    G:|---------------------------|-----------------------------|----------------|
    D:|---------------------------|-----------------------------|--10------------|
    A:|--7h8p7--------------------|--6h7p6-----5h6p5-----4h5p4--|--8-------------|
    E:|---------0--0--0--0--0--0--|---------0---------0---------|----------------|


    solo:

    Rhy Fig 5
    Rhy Fig 3
    Rhy Fig 6
    Rhy Fig 3
    Rhy Fig 6
    Rhy Fig 3


    Rhy Fig 5
    e:----------------------------------|----------------------------------|
    B:----------------------------------|----------------------------------|
    G:----------------------------------|----------------------------------|
    D:----------------------------------|----------------------------------|
    A:--2----------------------------8--|--8----------------------------4--|
    E:--0--0-0--0-0-0-0--0-0-0-0--0--6--|--6--0-0--0-0-0-0--0-0-0-0--0--2--|


    Rhy Fig 5
    e:----------------------------------|----------------------------|
    B:----------------------------------|----------------------------|
    G:----------------------------------|----------------------------|
    D:----------------------------------|----------------------------|
    A:--4----------------------------8--|--8----------------------5--|
    E:--2--0-0--0-0-0-0--0-0-0-0--0--6--|--6--0-0--0-0-0-0--2--0--3--|


    Rhy Fig 6 Rhy Fig 6
    e:----------------------------------|-----------------------------|
    B:----------------------------------|-----------------------------|
    G:----------------------------------|-----------------------------|
    D:----------------------------------|--------------------------7--|
    A:----------------------------------|--------------------------5--|
    E:--4--4-4-4-4-4-4--5--4-4-4-4-4-4--|--6--4-4-4-4-4-4-4--7--4-----|


    -nakarat-
    w/Rhy. Fig. 1
    w/Rhy. Fig. 1B

    Son
    e:------------------------------|----------------------------|
    B:------------------------------|----------------------------|
    G:------------------------------|----------------------------|
    D:--3------------------------9--|--9------(9)\---------------|
    A:--3------------------------7--|--7------(7)\---------------|
    E:--1---------------------------|----------------------------|


  5. #5
    Logii - ait Kullanıcı Resmi (Avatar)
    Üyelik tarihi
    May-2009
    Bulunduğu yer
    Tekirdağ
    Mesajlar
    234
    Konular
    44
    Ha birde kanka bu solo değilmi ? Akor yazmışsın başlığa

  6. #6
    Slayer Akorları nevermore - ait Kullanıcı Resmi (Avatar)
    Üyelik tarihi
    Mar-2009
    Bulunduğu yer
    Bornova
    Mesajlar
    12.313
    Konular
    2869
    Alıntı Logii Nickli Üyeden Alıntı Mesajı göster
    Ha birde kanka bu solo değilmi ? Akor yazmışsın başlığa
    evet de ara ara hepsini ekliyeceğim o yüzden akor dedim


    Angel of Death - Slayer ( BASS TAB)


    Tune down 1/2 step (Eb,Ab,Db,Gb)


    210 bpm

    |-----------------|-----------------|-----------------|-----------------|
    |-----------------|-----------------|-----------------|-----------------|
    |-----------------|-----------------|-----------------|-----------------|
    |-0---------------|-----------------|-----------------|-----------------|

    |-----------------|-----------------|-----------------|-----------------|

    |-----------------|-----------------|-----------------|-----------------|
    |-----------------|-----------------|-----------------|-----------------|
    |-0-------------1-|-1-------------2-|-2---------------|-1-0-1-5-----4---|

    |-----------------|-----------------|-----------------|-----------------|

    |-----------------|-----------------|-----------------|-----------------|
    |-----------------|-----------------|-----------------|-----------------|
    |-0-------------1-|-1-------------2-|-2---------------|-1-0-1-5-----4---|

    |-----------------|-----------------|-----------------|-----------------||

    |-----------------|-----------------|-----------------|-----------------||
    |-----------------|-----------------|-----------------|-----------------||
    |-0-------------1-|-1-------------2-|-2---------------|-1-0-1-5-----4---||

    |-----------------|-----------------|-----------------|-----------------|

    |-----------------|-----------------|-----------------|-----------------|
    |-----------------|-----------------|-----------------|-----------------|
    |-0-00000000000-1-|-1-00000000000-2-|-2-00000000000000|-1-0-1-5-----4---|

    |-----------------|-----------------|-----------------|-----------------|

    |-----------------|-----------------|-----------------|-----------------|
    |-----------------|-----------------|-----------------|-----------------|
    |-0-00000000000-1-|-1-00000000000-2-|-2-00000000000000|-1-0-1-5-----4---|

    |-----------------||

    |-----------------||
    |-----------------||
    |-1---------------||

    |-----------------|-----------------|-----------------|-----------------|

    |-----------------|-----------------|-----------------|-----------------|
    |---------1-------|-----------------|---------1-------|-----------------|
    |-0-00000---00000-|-0-00000-1-4-1---|-0-00000---00000-|-0-00000-1---4---|

    |-----------------|-----------------|-----------------|-----------------||

    |-----------------|-----------------|-----------------|-----------------||
    |---------1-------|-----------------|---------1-------|-----------------||
    |-0-00000---00000-|-0-00000-1-4-1---|-0-00000---00000-|-0-00000-5---6---||

    verse 1

    |-----------------|-----------------|-----------------|-----------------|
    |-----------------|-----------------|-----------------|-----------------|
    |---------1-------|-----------------|---------1-------|-----------------|
    |-0-00000---00000-|-0-00000-1-4-1---|-0-00000---00000-|-0-00000-1---4---|

    |-----------------|-----------------|-----------------|-----------------||

    |-----------------|-----------------|-----------------|-----------------||
    |---------1-------|-----------------|---------1-------|-----------------||
    |-0-00000---00000-|-0-00000-1-4-1---|-0-00000---00000-|-0-00000-5---6---||

    |-----------------|-----------------|-----------------|-----------------|

    |-----------------|-----------------|-----------------|-----------------|
    |-----------------|-----------------|-----------------|-----------------|
    |-1-1111112-111111|-3-1111114-1-2---|-1-1111112-111111|-3-1111114-1-2---|

    |-----------------|-----------------|-----------------|-----------------||

    |-----------------|-----------------|-----------------|-----------------||
    |-----------------|-----------------|-----------------|-----------------||
    |-1-1111112-111111|-3-1111114-1-2---|-1-1111112-111111|-3-1111114-1-2---||

    chorus

    |-----------------|-----------------|-----------------|-----------------|
    |-----------------|-----------------|-----------------|-----------------|
    |-----------------|-----------------|-----------------|-----------------|
    |-0-00000000000-1-|-1-00000000000-2-|-2-00000000000000|-1-0-1-5-----4---|

    |-----------------|-----------------|-----------------|-----------------||

    |-----------------|-----------------|-----------------|-----------------||
    |-----------------|-----------------|-----------------|-----------------||
    |-0-00000000000-1-|-1-00000000000-2-|-2-00000000000000|-1-0-1-5-----4---||

    verse 2

    |-----------------|-----------------|-----------------|-----------------|
    |-----------------|-----------------|-----------------|-----------------|
    |---------1-------|-----------------|---------1-------|-----------------|
    |-0-00000---00000-|-0-00000-1-4-1---|-0-00000---00000-|-0-00000-1---4---|

    |-----------------|-----------------|-----------------|-----------------||

    |-----------------|-----------------|-----------------|-----------------||
    |---------1-------|-----------------|---------1-------|-----------------||
    |-0-00000---00000-|-0-00000-1-4-1---|-0-00000---00000-|-0-00000-5---6---||

    chorus

    |-----------------|-----------------|-----------------|-----------------|
    |-----------------|-----------------|-----------------|-----------------|
    |-----------------|-----------------|-----------------|-----------------|
    |-0-00000000000-1-|-1-00000000000-2-|-2-00000000000000|-1-0-1-5-----4---|

    |-----------------|-----------------|-----------------|-----------------|

    |-----------------|-----------------|-----------------|-----------------|
    |-----------------|-----------------|-----------------|-----------------|
    |-0-00000000000-1-|-1-00000000000-2-|-2-00000000000000|-1-0-1-5-----4---|

    |-----------------|-----------------|-----------------|-----------------|

    |-----------------|-----------------|-----------------|-----------------|
    |-----------------|-----------------|-----------------|-----------------|
    |-0-00000000000-1-|-1-00000000000-2-|-2-00000000000000|-1-0-1-5-----4---|

    2/4

    |---------||
    |---------||
    |---------||
    |-1-------||

    184 bpm

    4/4
    |-----------------|-----------------|-----------------|-----------------|
    |-----------------|-----------------|-----------------|-----------------|
    |-----------------|-----------------|-----------------|-----------------|
    |-0---------------|-----------------|-----------------|-----------------|

    |-----------------|-----------------|-----------------|-----------------||

    |-----------------|-----------------|-----------------|-----------------||
    |-----------------|-----------------|-----------------|-----------------||
    |-----------------|-----------------|-----------------|-----------------||

    |-----------------|-----------------|-----------------|-----------------|

    |--hp-------------|--hp----hp----hp-|--hp-------------|-----------------|
    |-787-------------|-676---565---454-|-787-------------|-----------------|
    |-----0-0-0-0-0-0-|-----0-----0-----|-----0-0-0-0-0-0-|-0-0-0-0-0-0-0-0-|

    |-----------------|-----------------|-----------------|-----------------|

    |--hp-------------|--hp----hp----hp-|--hp-------------|-----------------|
    |-787-------------|-676---565---454-|-787-------------|-----------------|
    |-----0-0-0-0-0-0-|-----0-----0-----|-----0-0-0-0-0-0-|-0-0-0-0-0-0-0-0-|

    |-----------------|-----------------|-----------------|-----------------|

    |--hp-------------|--hp----hp----hp-|--hp-------------|-----------------|
    |-787-------------|-676---565---454-|-787-------------|-----------------|
    |-----0-0-0-0-0-0-|-----0-----0-----|-----0-0-0-0-0-0-|-0-0-0-0-0-0-0-0-|

    |-----------------|-----------------||

    |--hp-------------|--hp----hp----hp-||
    |-787-------------|-676---565---454-||
    |-----0-0-0-0-0-0-|-----0-----0-----||

    verse 3

    |-----------------|-----------------|-----------------|-----------------|
    |-----------------|-----------------|-----------------|-----------------|
    |-----------------|-----------------|-----------------|-----------------|
    |-0-0-0-1-0-0-0-0-|-0-0-1-0-0-5-6---|-0-0-0-1-0-0-0-0-|-0-0-0-0-0-0-0-0-|

    |-----------------|-----------------|-----------------|-----------------|

    |-----------------|-----------------|-----------------|-----------------|
    |-----------------|-----------------|-----------------|-----------------|
    |-0-0-0-1-0-0-0-0-|-0-0-1-0-0-5-6---|-0-0-0-1-0-0-0-0-|-0-0-0-0-0-0-0-0-|

    |-----------------|-----------------|-----------------|-----------------|

    |-----------------|-----------------|-----------------|-----------------|
    |-----------------|-----------------|-----------------|-----------------|
    |-0-0-0-1-0-0-0-0-|-0-0-1-0-0-5-6---|-0-0-0-1-0-0-0-0-|-0-0-0-0-0-0-0-0-|

    |-----------------|-----------------|-----------------|-----------------|

    |-----------------|-----------------|-----------------|-6-------3---4---|
    |-----------------|-----------------|-----------------|---7-5-----4---5-|
    |-0-0-0-1-0-0-0-0-|-0-0-1-0-0-5-6---|-0-0-0-1-0-0-0-0-|-------6---------|

    |-----------------|-----------------|-----------------|-----------------|

    |-----------------|-----------------|-----------------|-6-------3---4---|
    |-----------------|-----------------|-----------------|---7-5-----4---5-|
    |-1-1-1-1-1-1-1-1-|-4-------3-----3-|-0-0-0-1-0-0-0-0-|-------6---------|

    |-----------------|-----------------||

    |-----------------|-----------------||
    |-----------------|-----------------||
    |-1-1-1-1-1-------|-4-------3-------||

    |-----------------|-----------------|-----------------|-----------------|

    |-----------------|-----------------|-----------------|-----------------|
    |-----------------|-----------------|-----------------|-----------------|
    |-0-0-0-1-0-0-0-0-|-0-0-1-0-0-5-6---|-0-0-0-1-0-0-0-0-|-0-0-0-0-0-0-0-0-|

    |-----------------|-----------------|-----------------|-----------------||

    |-----------------|-----------------|-----------------|-----------------||
    |-----------------|-----------------|-----------------|-----------------||
    |-0-0-0-1-0-0-0-0-|-0-0-1-0-0-5-6---|-0-0-0-1-0-0-0-0-|-0-0-0-0-0-0-0-0-||

    verse 4

    |-----------------|-----------------|-----------------|-----------------|
    |-----------------|-----------------|-----------------|-----------------|
    |-----------------|-----------------|-----------------|-----------------|
    |-0-0-0-1-0-0-0-0-|-0-0-1-0-0-5-6---|-0-0-0-1-0-0-0-0-|-0-0-0-0-0-0-0-0-|

    |-----------------|-----------------|-----------------|-----------------|

    |-----------------|-----------------|-----------------|-----------------|
    |-----------------|-----------------|-----------------|-----------------|
    |-0-0-0-1-0-0-0-0-|-0-0-1-0-0-5-6---|-0-0-0-1-0-0-0-0-|-0-0-0-0-0-0-0-0-|

    |-----------------|-----------------|-----------------|-----------------|

    |-----------------|-----------------|-----------------|-----------------|
    |-----------------|-----------------|-----------------|-----------------|
    |-0-0-0-1-0-0-0-0-|-0-0-1-0-0-5-6---|-0-0-0-1-0-0-0-0-|-0-0-0-0-0-0-0-0-|

    |-----------------|-----------------|-----------------|-----------------|

    |-----------------|-----------------|-----------------|-6-------3---4---|
    |-----------------|-----------------|-----------------|---7-5-----4---5-|
    |-0-0-0-1-0-0-0-0-|-0-0-1-0-0-5-6---|-0-0-0-1-0-0-0-0-|-------6---------|

    |-----------------|-----------------|-----------------|-----------------|

    |-----------------|-----------------|-----------------|-6-------3---4---|
    |-----------------|-----------------|---------------|---7-5-----4---5-5
    |-1-1-1-1-1-------|-4-------3-------|-0-0-0-1-0-0-0-0-|-------6--------

    |-----------------|-----------------||

    |-----------------|-----------------||
    |-----------------|-----------------||
    |-1-1-1-1-1-------|-4-------3-------||

    |-----------------|-----------------|-----------------|----------------

    |--hp-------------|--hp----hp----hp-|--hp-------------|----------------
    |-787-------------|-676---565---454-|-787-------------|----------------
    |-----0-0-0-0-0-0-|-----0-----0-----|---0-0-0-0-0-0-|-0-0-0-0-0-0-0-0-0

    |-----------------|-----------------|-----------------|----------------

    |--hp-------------|--hp----hp----hp-|--hp-------------|----------------
    |-787-------------|-676---565---454-|-787-------------|----------------
    |-----0-0-0-0-0-0-|-----0-----0-----|---0-0-0-0-0-0-|-0-0-0-0-0-0-0-0-0

    |-----------------|-----------------|-----------------|----------------

    |--hp-------------|--hp----hp----hp-|--hp-------------|----------------
    |-787-------------|-676---565---454-|-787-------------|----------------
    |-----0-0-0-0-0-0-|-----0-----0-----|---0-0-0-0-0-0-|-0-0-0-0-0-0-0-0-0

    |-----------------|-----------------|-----------------||

    |--hp-------------|--hp----hp----hp-|-----------------||
    |-787-------------|-676---565---454-|-8---------------||
    |-----0-0-0-0-0-0-|-----0-----0-----|-----------------||

    guitar solo

    232 bpm
    |-----------------|-----------------|-----------------|----------------
    |-----------------|-----------------|-----------------|----------------
    |-----------------|-----------------|-----------------|----------------
    |-0-00000000000-6-|-6-00000000000-2-|-2-00000000000-6-|-6-0000002-0-3--

    |-----------------|-----------------|-----------------|----------------

    |-----------------|-----------------|-----------------|----------------
    |-----------------|-----------------|-----------------|----------------
    |-0-00000000000-6-|-6-00000000000-2-|-2-00000000000-6-|-6-0000002-0-3--

    |-----------------|-----------------|-----------------|----------------

    |-----------------|-----------------|-----------------|----------------
    |-----------------|-----------------|-----------------|----------------
    |-0-00000000000-6-|-6-00000000000-2-|-2-00000000000-6-|-6-0000002-0-3--

    |-----------------|-----------------|-----------------|----------------

    |-----------------|-----------------|-----------------|----------------
    |-----------------|-----------------|-----------------|----------------
    |-0-00000000000-6-|-6-00000000000-2-|-2-00000000000-6-|-6-0000002-0-3--

    |-----------------|-----------------|-----------------|----------------

    |-----------------|-----------------|-----------------|----------------
    |-----------------|-----------------|-----------------|----------------
    |-1-1111112-111111|-3-1111114-1-2---|-1-1111112-111111|-3-1111114-1-2--

    |-----------------|-----------------|-----------------|----------------

    |-----------------|-----------------|-----------------|----------------
    |-----------------|-----------------|-----------------|----------------
    |-1-1111112-111111|-3-1111114-1-2---|-1-1111112-111111|-3-1111114-1-2--

    |-----------------|-----------------|-----------------|----------------

    |-----------------|-----------------|-----------------|----------------
    |-----------------|-------------5---|-----------------|-------------5--
    |-4-4444445-444444|-6-4444447-4-----|-4-4444445-444444|-6-4444447-4----

    |-----------------|-----------------|-----------------|----------------

    |-----------------|-----------------|-----------------|----------------
    |-----------------|-------------5---|-----------------|-------------5--
    |-4-4444445-444444|-6-4444447-4-----|-4-4444445-444444|-6-4444447-4----

    |-----------------|-----------------|-----------------|----------------

    |-----------------|-----------------|-----------------|---------------
    |-----------------|-----------------|-----------------|----------------
    |-1-1111112-111111|-3-1111114-1-2---|-1-1111112-111111|-3-1111114-1-2--
    |-----------------|-----------------|-----------------|----------------
    |-----------------|-----------------|-----------------|----------------
    |-----------------|-------------5---|-----------------|-------------5--
    |-4-4444445-444444|-6-4444447-4-----|-4-4444445-444444|-6-4444447-4----

    |-----------------|-----------------|-----------------|----------------

    |-----------------|-----------------|-----------------|----------------
    |-----------------|-----------------|-----------------|----------------
    |-1-1111112-111111|-3-1111114-1-2---|-1-1111112-111111|-3-1111114-1-2--

    |-----------------|-----------------|-----------------|----------------

    |-----------------|-----------------|-----------------|----------------
    |-----------------|-----------------|-----------------|----------------
    |-1-1111112-111111|-3-1111114-1-2---|-1-1111112-111111|-0--------------

    |-----------------|-----------------||

    |-----------------|-----------------||
    |-----------------|-----------------||
    |-----------------|-----------------||

    tempo I

    |-----------------|-----------------|-----------------|----------------
    |-----------------|-----------------|-----------------|----------------
    |-----------------|-----------------|-----------------|----------------
    |-0-00000000000-1-|-1-00000000000-2-|-2-00000000000000|-1-0-1-5-----4--

    |-----------------|-----------------|-----------------|----------------

    |-----------------|-----------------|-----------------|----------------
    |-----------------|-----------------|-----------------|----------------
    |-0-00000000000-1-|-1-00000000000-2-|-2-00000000000000|-1-0-1-5-----4--

    |-----------------|-----------------|-----------------|----------------

    |-----------------|-----------------|-----------------|----------------
    |-----------------|-----------------|-----------------|----------------
    |-0-00000000000-1-|-1-00000000000-2-|-2-00000000000000|-1-0-1-5-----4--

    |-----------------|-----------------|-----------------|----------------

    |-----------------|-----------------|-----------------|----------------
    |-----------------|-----------------|-----------------|----------------
    |-0-00000000000-1-|-1-00000000000-2-|-2-00000000000000|-1-0-1-5-----4--

    |-----------------|-----------------||

    |-----------------|-----------------||
    |---------------7-|-7---------------||
    |-1--------
    -------|-----------------||

  7. #7
    Logii - ait Kullanıcı Resmi (Avatar)
    Üyelik tarihi
    May-2009
    Bulunduğu yer
    Tekirdağ
    Mesajlar
    234
    Konular
    44
    Tamamdır, sorun yok o zaman

  8. #8
    Slayer Akorları nevermore - ait Kullanıcı Resmi (Avatar)
    Üyelik tarihi
    Mar-2009
    Bulunduğu yer
    Bornova
    Mesajlar
    12.313
    Konular
    2869
    South Of Heaven Tab (albüm)

    INTRO:
    RIFF 1: (*4 times)
    Gtr.1Eb||-------------------------------------------------|-------------------------------------------------||
    Bb||-------------------------------------------------|-------------------------------------- trill ----||
    Gb||-------------9~~~~----8--------7-----7--6~~~~~~--|-------------9~~~~----8--------7-----6h7p6h7p6~~-||
    Db||-------9--10-------10-------9-----8--------------|-------9--10-------10-------9-----8--------------||
    Ab||----7--------------------------------------------|----7--------------------------------------------||
    Eb||-0-----------------------------------------------|-0-----------------------------------------------||
    || | ||
    Gtr.2Eb||-------------------------------------------------|-------------------------------------------------||
    Bb||-------------------------------------------------|-------------------------------------- trill ----||
    Gb||-------------4~~~~----3--------2-----2--1~~~~~~--|-------------4~~~~----3--------2-----1h2p1h2p1~~-||
    Db||-------4--5--------5--------4-----3--------------|-------4--5--------5--------4-----3--------------||
    Ab||----7--------------------------------------------|----7--------------------------------------------||
    Eb||-0-----------------------------------------------|-0-----------------------------------------------||
    Starting from 3rd repeat, add guitar 3, which plays natural harmonics and articulates them with tremolo bar.
    RIFF 2: (*2 times)
    Gtr.1Eb||-------------------------------------------------|-------------------------------------------------||
    Bb||-------------------------------------------------|-------------------------------------------------||
    Gb||-------------------------------------------------|-------------------------------------------------||
    Db||-2-----------------------------------------------|-2-----------------------------------------------||
    Ab||-2-----------------------------------------------|-2-----------------------------------------------||
    Eb||-0-----------------------------------------------|-0-----------------------------------------------||
    || | ||
    Gtr.2Eb||-------------------------------------------------|-------------------------------------------------||
    Bb||-------------------------------------------------|-------------------------------------- trill ----||
    Gb||-------------4--------3--------2-----2--1~~~~~~--|-------------4--------3--------2-----1h2p1h2p1~~-||
    Db||-------2--5--------5--------4-----3--------------|-------2--5--------5--------4-----3--------------||
    Ab||----2--------------------------------------------|----2--------------------------------------------||
    Eb||-0-----------------------------------------------|-0-----------------------------------------------||
    VERSE 1:
    An unforeseen future nestled somewhere in time. Unsuspecting victims,no warnings,no signs.
    Gtr.1Eb|--------------------------------------------------|-------------------------------------------------|
    Bb|--------------------------------------------------|-------------------------------------------------|
    Gb|--------------------------------------------------|-------------------------------------------------|
    Db|--------------------------------------------------|-------------------------------------------------|
    Ab|--------------------------------------------------|-------------------------------------------------|
    Eb|--0--0--0--0--0--0--0--0--0--0--0--0--0--0--0--0--|-0--0--0--0--0--0--0--0--0--0--0--0--0--0--0--0--|
    | . . . . . . . . . . . . . . . . | . . . . . . . . . . . . . . . . |
    Gtr.2Eb|--------------------------------------------------|-------------------------------------------------|
    Bb|--------------------------------------------------|-------------------------------------- trill ----|
    Gb|--------------4--------3--------2-----2--1~~~~~~--|-------------4--------3--------2-----1h2p1h2p1~~-|
    Db|--------2--5--------5--------4-----3--------------|-------2--5--------5--------4-----3--------------|
    Ab|-----2--------------------------------------------|----2--------------------------------------------|
    Eb|--0-----------------------------------------------|-0-----------------------------------------------|

    Judgment day,the second coming arrives. Before you see the light, you must die!
    Gtr.1Eb|--------------------------------------------------|-------------------------------------------------|
    Bb|--------------------------------------------------|-------------------------------------------------|
    Gb|--------------------------------------------------|-------------------------------------------------|
    Db|--------------------------------------------------|-------------------------------------------------|
    Ab|--------------------------------------------------|---------------------------------------------sl--|
    Eb|--0--0--0--0--0--0--0--0--0--0--0--0--0--0--0--0--|-0--0--0--0--0--0--0--0--0--0--0--0--0--0--12\---|
    | . . . . . . . . . . . . . . . . | . . . . . . . . . . . . . . |
    Gtr.2Eb|--------------------------------------------------|-------------------------------------------------|
    Bb|--------------------------------------------------|-------------------------------------- trill ----|
    Gb|--------------4--------3--------2-----2--1~~~~~~--|-------------4--------3--------2-----1h2p1h2p1~~-|
    Db|--------2--5--------5--------4-----3--------------|-------2--5--------5--------4-----3--------------|
    Ab|-----2--------------------------------------------|----2--------------------------------------------|
    Eb|--0-----------------------------------------------|-0-----------------------------------------------|
    RIFF 2A (play 2 times):
    Gtr.1Eb||-------------------------------------------------|-------------------------------------------------||
    Bb||-------------------------------------------------|-------------------------------------- trill ----||
    Gb||-------------9~~~~----8--------7-----7--6~~~~~~--|-------------9~~~~----8--------7-----6h7p6h7p6~~-||
    Db||-------9--10-------10-------9-----8--------------|-------9--10-------10-------9-----8--------------||
    Ab||----7--------------------------------------------|----7--------------------------------------------||
    Eb||-0-----------------------------------------------|-0-----------------------------------------------||
    || . . | . . ||
    Gtr.2Eb||-------------------------------------------------|-------------------------------------------------||
    Bb||-------------------------------------------------|-------------------------------------- trill ----||
    Gb||-------------4--------3--------2-----2--1~~~~~~--|-------------4--------3--------2-----1h2p1h2p1~~-||
    Db||-------2--5--------5--------4-----3--------------|-------2--5--------5--------4-----3--------------||

    Ab||----2--------------------------------------------|----2--------------------------------------------||
    Eb||-0-----------------------------------------------|-0-----------------------------------------------||
    RIFF 3:
    Gtr.1Eb|--------------------------------------------------|-------------------------------------------------|
    Bb|--------------------------------------------------|-------------------------------------------------|
    Gb|--------------------------------------------------|---------------------------------------10-10\----|
    Db|--2-----------------------------------------------|-2-------------------------------------10-10\-sl-|
    Ab|--2-----------------------------------------------|-2--------------------------------------8--8\----|
    Eb|--0-----------------------------------------1--1--|-0-----------------------------------------------|
    | > . . | > > > |
    Gtr.2Eb|--------------------------------------------------|-------------------------------------------------|
    Bb|--------------------------------------------------|-------------------------------------------------|
    Gb|--------------------------------------------------|-------------------------------------------------|
    Db|--------------------------------------------------|-------------------------------------------------|
    Ab|-----------10-------8-----7--------10-------------|----------10-------8-----7--------10-------------|
    Eb|--0--0--0--0--0--0--0--0--0--0--0--0--0--0--1--1--|-0--0--0--0--0--0--0--0--0--0--0--0--0--0--1--1--|
    . . . > . . > . > . . > . . . . . . . > . . > . > . . > . . . .

    Gtr.1Eb|--------------------------------------------------|-------------------------------------------------|
    Bb|--------------------------------------------------|-------------------------------------------------|
    Gb|--------------------------------------------10----|-------------------------------------------------|
    Db|--2-----------------------------------------10----|-------------------------------------------------|
    Ab|--2-----------------------------------------8-----|-7--7--7--7--7--7--7--7--7--7--7--7--7--7--7--7--|
    Eb|--0-----------------------------------------------|-0--0--0--0--0--0--0--0--0--0--0--0--0--0--0--0--|
    | > > | . . . . . . . . . . . . . . . |
    Gtr.2Eb|--------------------------------------------------|-------------------------------------------------|
    Bb|--------------------------------------------------|-------------------------------------------------|
    Gb|--------------------------------------------------|-------------------------------------------------|
    Db|--------------------------------------------------|-------------------------------------------------|
    Ab|-----------10-------8-----7--------10-------------|----------10-------8-----7--------10-------------|
    Eb|--0--0--0--0--0--0--0--0--0--0--0--0--0--0--1--1--|-0--0--0--0--0--0--0--0--0--0--0--0--0--0--1--1--|
    . . . > . . > . > . . > . . . . . . . > . . > . > . . > . . . .
    Increase tempo: 138
    VERSE 2:
    Forgotten children con - fo - orm a new fa - ith, a -
    Gtr.1Eb|---------------------------------|---------------------------------|
    Gtr.2Hb|---------------------------------|---------------------------------|
    Gb|---------------------------------|---------------------------------|
    Db|-------------5-----------3-------|-------------5-----------3-------|
    Ab|-------------5-----------3-------|-------------5-----------3-------|
    Eb|-0-0-0---0---3---0---0---1---0---|-0-0-0---0---3---0-0-0---1-------|
    . . . . > . . > . . . . . > . . . >
    vidity and lust con - trolled by ha - te. The
    Gtr.1Eb|---------------------------------|---------------------------------|
    Gtr.2Hb|---------------------------------|---------------------------------|
    Gb|---------------------------------|---------------------------------|
    Db|-------------5-----------3-------|-------------5-----------3-------|
    Ab|-------------5-----------3-------|-------------5-----------3-------|
    Eb|-0-0-0---0---3---0---0---1---0---|-0-0-0---0---3---0-0-0---1-------|
    . . . . > . . > . . . . . > . . . >
    never ending search for yo - ur shattered sanity.
    Gtr.1Eb|---------------------------------|---------------------------------|
    Gtr.2Hb|---------------------------------|---------------------------------|
    Gb|---------------------------------|---------------------------------|
    Db|-------------5-----------3-------|-------------5-----------3-------|
    Ab|-------------5-----------3-------|-------------5-----------3-------|
    Eb|-0-0-0---0---3---0---0---1---0---|-0-0-0---0---3---0-0-0---1-------|
    . . . . > . . > . . . . . > . . . >
    Souls of Dam - nation in their own re - a - lity.
    Gtr.1Eb|---------------------------------|---------------------------------|
    Gtr.2Hb|---------------------------------|---------------------------------|
    Gb|---------------------------------|---------------------------------|
    Db|-------------5-----------3-------|-------------5-----------3-------|
    Ab|-------------5-----------3-------|-------------5-----------3-------|
    Eb|-0-0-0---0---3---0---0---1---0---|-0-0-0---0---3---0-0-0---1-------|
    . . . . > . . > . . . . . > . . . >
    PRE-CHORUS: (Gtr.3 adds tremolo bar effects)
    Cha - os ram - pant, an age of dis - trust.
    Gtr.1Eb|---------------------------------|---------------------------------|
    Gtr.2Hb|---------------------------------|---------------------------------|
    Gb|---------------------------------|---------------------------------|
    Db|---------------------------------|-------------------------5-------|
    Ab|-4---------------4---------------|-4-------4-------4-------5-------|
    Eb|-2---2---2-2-2---2---2---6\--0---|-2-2-2---2-2-2---2-2-2-2-3-------|
    > . . . . > . > > . . > . . > . . . >
    Confron - ta - tions. Im - pulsive ha - bi - tat.
    Gtr.1Eb|---------------------------------|---------------------------------|
    Gtr.2Hb|---------------------------------|---------------------------------|
    Gb|---------------------------------|-----------------3---------------|
    Db|---------------------------------|-----------------3---------------|
    Ab|-4-------4-------4---------------|-4-------4-------1---------------|
    Eb|-2-2-2---2-2-2---2-2-2---5\--0---|-2-2-2---2-2-2-0-----3---2---1---|
    > . . . . . > . . > > . . > . . . >
    Tempo: slow (63)
    REPEAT RIFF 2A (*2 times)
    RIFF 3A:
    Gtr.1Eb|--------------------------------------------------|-------------------------------------------------|
    Bb|--------------------------------------------------|-------------------------------------------------|
    Gb|--------------------------------------------10----|-9----------------------------------------10-----|
    Db|--2-----------9-----------------------------10----|-9-----------9----------------------------10-----|
    Ab|--2--------10-------8-----7--------10-------8-----|-7--------10-------8-----7--------10-------8-----|
    Eb|--0--------------0--0--0--0--0--0--0--0--0--------|----0--0--0--0--0--0--0--0--0--0--0--0--0--------|
    | > . . > . > . . > . . > | > . . > > . > . > . . > . . > |
    Gtr.2Eb|--------------------------------------------------|-------------------------------------------------|
    Bb|--------------------------------------------------|-------------------------------------------------|
    Gb|--------------------------------------------------|-------------------------------------------10----|
    Db|--------------------------------------------------|-------------------------------------------10----|
    Ab|-----------10-------8-----7--------10-------------|----------10-------8-----7--------10-------8-----|
    Eb|--0--0--0--0--0--0--0--0--0--0--0--0--0--0--1--1--|-0--0--0--0--0--0--0--0--0--0--0--0--0--0--------|
    . . . > . . > . > . . > . . . . . . . > . . > . > . . > . . >
    Increase tempo: 138
    VERSE 3:
    Bas - tard sons be - gat your cunting daughters. Pro -
    Gtr.1Eb|---------------------------------|---------------------------------|
    Gtr.2Hb|---------------------------------|---------------------------------|
    Gb|---------------------------------|---------------------------------|
    Db|-------------5-----------3-------|-------------5-----------3-------|
    Ab|-------------5-----------3-------|-------------5-----------3-------|
    Eb|-0-0-0---0---3---0---0---1---0---|-0-0-0---0---3---0-0-0---1-------|
    . . . . > . . > . . . . . > . . . >
    miscu - ous mothers with your in - cestu - ous fathers.
    Gtr.1Eb|---------------------------------|---------------------------------|
    Gtr.2Hb|---------------------------------|---------------------------------|
    Gb|---------------------------------|---------------------------------|
    Db|-------------5-----------3-------|-------------5-----------3-------|
    Ab|-------------5-----------3-------|-------------5-----------3-------|
    Eb|-0-0-0---0---3---0---0---1---0---|-0-0-0---0---3---0-0-0---1-------|
    . . . . > . . > . . . . . > . . . >
    Engreat so - uls con - demned for all eternity. Ob -
    Gtr.1Eb|---------------------------------|---------------------------------|
    Gtr.2Hb|---------------------------------|---------------------------------|
    Gb|---------------------------------|---------------------------------|
    Db|-------------5-----------3-------|-------------5-----------3-------|
    Ab|-------------5-----------3-------|-------------5-----------3-------|
    Eb|-0-0-0---0---3---0---0---1---0---|-0-0-0---0---3---0-0-0---1-------|
    . . . . > . . > . . . . . > . . . >
    tained by immoral observance a domine - ering de - i - ty.
    Gtr.1Eb|---------------------------------|---------------------------------|
    Gtr.2Hb|---------------------------------|---------------------------------|
    Gb|---------------------------------|---------------------------------|
    Db|-------------5-----------3-------|-------------5-----------3-------|
    Ab|-------------5-----------3-------|-------------5-----------3-------|
    Eb|-0-0-0---0---3---0---0---1---0---|-0-0-0---0---3---0-0-0---1-------|
    . . . . > . . > . . . . . > . . . >
    PRE - CHORUS
    CHORUS:
    On and on, south of hea - ven.
    Gtr.1Eb|---------------------------------|---------------------------------|
    Gtr.2Hb|---------------------------------|---------------------------------|
    Gb|---------------------------------|---------------------1---2~~~~~--|
    Db|---------6-------5-----------5---|-4-------------------2---3~~~~~--|
    Ab|---------6-------5-----------5---|-4-------------------------------|
    Eb|-0---0---4-------3---0---0---3---|-2---0---0---0---0---------------|
    . . > > . . > > . . . . > >
    On and on, south of hea - ven.
    Gtr.1Eb|---------------------------------|---------------------------------|
    Gtr.2Hb|---------------------------------|---------------------------------|
    Gb|---------------------------------|---------------------1---2~~~~~--|
    Db|---------6-------5-----------5---|-4-------------------2---3~~~~~--|
    Ab|---------6-------5-----------5---|-4-------------------------------|
    Eb|-0---0---4-------3---0---0---3---|-2---0---0---0---0---------------|
    . . > > . . > > . . . . > >
    On and on, south of hea - ven.
    Gtr.1Eb|---------------------------------|---------------------------------|
    Gtr.2Hb|---------------------------------|---------------------------------|
    Gb|---------------------------------|---------------------1---2~~~~~--|
    Db|---------6-------5-----------5---|-4-------------------2---3~~~~~--|
    Ab|---------6-------5-----------5---|-4-------------------------------|
    Eb|-0---0---4-------3---0---0---3---|-2---0---0---0---0---------------|
    . . > > . . > > . . . . > >
    On and on, south of hea - ven.
    Gtr.1Eb|---------------------------------|---------------------------------|
    Hb|--------------------------- N.H.-|---------------------------------|
    Gb|----------------------------?5>--|---------------------------------|
    Db|---------6-------5---------------|---------------------------------|
    Ab|---------6-------5---------------|--- depress tremolo bar ---------|
    Eb|-0---0---4-------3---0---0-------|-6-\\\\\\\\\\\\\\\\\\\\\\--------|
    | . . > > . . | |
    Gtr.2Eb|---------------------------------|---------------------------------|
    Hb|---------------------------------|---------------------------------|
    Gb|---------------------------------|---------------------9---10~~~~--|
    Db|---------6-------5-----------5---|-4-------------------------------|
    Ab|---------6-------5-----------5---|-4-------------------7---8-------|
    Eb|-0---0---4-------3---0---0---3---|-2---0---0---0---0---------------|
    . . > > . . > > . . . . > >


    SONG: Silent Scream
    ARTIST: Slayer
    ALBUM: South Of Heaven
    Tabbed by: David Lichter (lichter@ebox.tninet.se)


    Tune down 1/2 step.

    Intro:
    Eb|-----------------------------------|
    Bb|-----------------------------------|
    Gb|-----------------------------------|
    Db|--------------------------4--3-----|
    Ab|--------------------------2--1-----|
    Eb|-0-0-0-0-0-0-0-0-0-0-0-0-----------|
    PM|-----------------------|

    Nightmare, the persecution...
    Eb|--------------------------------|
    Bb|--------------------------------|
    Gb|--------------------------------|
    Db|----9----8----------------------|
    Ab|-7---10---9--8/10--7------------|
    Eb|--------------------------------|


    Chorus:
    Silent scream, bury the...
    Eb|--------------------------------|
    Bb|--------------------------------|
    Gb|--------------------------------|
    Db|--4----3------------------------|
    Ab|--2----1------------------------|
    Eb|--------------------------------|

    Eb|--------------------------------|
    Bb|--------------------------------|
    Gb|--------------------------------|
    Db|-4--2--4--2--4--2--4--5---------|
    Ab|-2--0--2--0--2--0--2--3---------|
    Eb|--------------------------------|

    Beaten and torn, sacrifice the...
    Eb|--------------------------------|
    Bb|--------------------------------|
    Gb|--------------------------------|
    Db|--4----3------------------------|
    Ab|--2----1------------------------|
    Eb|--------------------------------|

    Eb|---------------------------|
    Bb|---------------------------|
    Gb|---------------------------|
    Db|-4--2--4--2--4--2--4--5----|
    Ab|-2--0--2--0--2--0--2--3----|
    Eb|---------------------------|

    Eb|-------------------------------|
    Bb|-------------------------------|
    Gb|-------------------------------|
    Db|--9--7--9--7--9--7--9--10------|
    Ab|--7--5--7--5--7--5--7--8-------|
    Eb|-------------------------------|

    Shattered, adolescent...
    Eb|--------------------------------|
    Bb|--------------------------------|
    Gb|--------------------------------|
    Db|----9----8----------------------|
    Ab|-7---10---9--8/10--7------------|
    Eb|--------------------------------|


    Silent scream, crucify bastard...
    Eb|--------------------------------|
    Bb|--------------------------------|
    Gb|--------------------------------|
    Db|--4----3------------------------|
    Ab|--2----1------------------------|
    Eb|--------------------------------|

    Eb|--------------------------------|
    Bb|--------------------------------|
    Gb|--------------------------------|
    Db|-4--2--4--2--4--2--4--5---------|
    Ab|-2--0--2--0--2--0--2--3---------|
    Eb|--------------------------------|

    Beaten and torn, sanctify lives..
    Eb|--------------------------------|
    Bb|--------------------------------|
    Gb|--------------------------------|
    Db|--4----3------------------------|
    Ab|--2----1------------------------|
    Eb|--------------------------------|

    Eb|---------------------------|
    Bb|---------------------------|
    Gb|---------------------------|
    Db|-4--2--4--2--4--2--4--5----|
    Ab|-2--0--2--0--2--0--2--3----|
    Eb|---------------------------|

    Eb|-------------------------------|
    Bb|-------------------------------|
    Gb|-------------------------------|
    Db|--9--7--9--7--9--7--9--10------|
    Ab|--7--5--7--5--7--5--7--8-------|
    Eb|-------------------------------|


    Solo

    After the solo it's a riff that I couldn't tab out

    Eb|-----------------------------------|
    Bb|-----------------------------------|
    Gb|-----------------------------------|
    Db|--------------------------4--3-----|
    Ab|--------------------------2--1-----|
    Eb|-0-0-0-0-0-0-0-0-0-0-0-0-----------|
    PM|-----------------------|


    Nightmare, the persecution...
    Eb|--------------------------------|
    Bb|--------------------------------|
    Gb|--------------------------------|
    Db|----9----8----------------------|
    Ab|-7---10---9--8/10--7------------|
    Eb|--------------------------------|

    Innocence with drawn in fear...
    Eb|--------------------------------|
    Bb|--------------------------------|
    Gb|--------------------------------|
    Db|--4----3------------------------|
    Ab|--2----1------------------------|
    Eb|--------------------------------|

    Eb|--------------------------------|
    Bb|--------------------------------|
    Gb|--------------------------------|
    Db|-4--2--4--2--4--2--4--5---------|
    Ab|-2--0--2--0--2--0--2--3---------|
    Eb|--------------------------------|

    Fires burning can you hear...
    Eb|--------------------------------|
    Bb|--------------------------------|
    Gb|--------------------------------|
    Db|--4----3------------------------|
    Ab|--2----1------------------------|
    Eb|--------------------------------|
    cries...
    Eb|---------------------------|
    Bb|---------------------------|
    Gb|---------------------------|
    Db|-4--2--4--2--4--2--4--5----|
    Ab|-2--0--2--0--2--0--2--3----|
    Eb|---------------------------|

    ...in the night.
    Eb|-------------------------------|
    Bb|-------------------------------|
    Gb|-------------------------------|
    Db|--9--7--9--7--9--7--9----------|
    Ab|--7--5--7--5--7--5--7----------|
    Eb|-------------------------------|


    This song wasn't easy to tab out.



  9. #9
    Slayer Akorları nevermore - ait Kullanıcı Resmi (Avatar)
    Üyelik tarihi
    Mar-2009
    Bulunduğu yer
    Bornova
    Mesajlar
    12.313
    Konular
    2869
    SLAYER - LIVE UNDEAD
    From the Album SOUTH OF HEAVEN
    Copyright 1988 DEF JAM RECORDINGS



    . - palm mute / - slide up to
    \ - slide down to ~ - vibrato
    h - hammer on b - bend
    p - pull off Suffixes for bend
    ph - pinch harmonic f - full bend h - half bend
    * - see comment r - release t - tap bend
    X - percussion mute ~ - vibrato bend
    @ - slight palm mute () - ghost note, sustained note

    Tuning: Eb(Eb,Ab,Db,Gb,Bb,Eb)

    Intro.-
    |-----------------------------------|
    |-----------------------------------|
    |-9------8------------7-------------|
    |-9------8------------7-------------|
    |-7------6-----6h9p6--5-------------|
    |---0000---00-----------0000-6-5----|
    pm---- -- ----

    Verse (there are a few variations, but it's all w/these notes)-
    |--------------------------------------------------|
    |--------------------------------------------------|
    |--------------------------------------------------|
    |--------------------------------------------------|
    |-7-----7-----7-----7-----8-----8-----8-----8------|
    |---777---777---777---777---888---888---888---888--|
    pm--- --- --- --- --- --- --- ---

    Chorus thingy-
    |---------------------------------|
    |---------------------------------|
    |---------------------------------|
    |---------6\5---6----------8------|
    |-7----8--4\3---4--7----8--6------|
    |-5----6-----------5----6---------|

    Pre-Chorus thingy-
    |--------------------------------------------------------------------|
    |--------------------------------------------------------------------|
    |--------------------------------------------------------------------|
    |--------------------------------------------------------------------|
    |------8--------8--------8----6--------8--------8--------8----7-6-7--|
    |-0000-6-000000-6-000000-6-00-4---0000-6-000000-6-000000-6-00-5-4-5--|
    pm---- ------ ------ -- ---- ------ ------ ---

    Riff that's played w/lead-
    |------------------------------|
    |------------------------------|
    |------------------------------|
    |------------------------------|
    |-------7h10-7--------7h10-7---|
    |-00000--------000000----------|
    pm----- ------

    This may be missing a few backup riffs, if so, I'll send them in at some
    point...


    SLAYER
    BEHIND THE CROOKED CROSS
    From their fine album 'South of Heaven'


    Comments:

    I didn't even attempt to do the solos.

    Throughout the song, play all downpicks. I know it's fast and your wrist
    starts to hurt. Quit whining. Slayer is supposed to hurt.

    As usual, guitars are tuned to Eb. Hanneman has the left stereo channel.

    Tempo 220 bpm (ie crazy fast)

    Intro
    Gb|----------------|
    Db|----------------|
    Ab|----------------|
    Eb|2-2-2-2-2-2-2-2-|
    P.M. . . . . . . .

    Left Gtr plays the intro riff 4x
    Both Gtrs play the intro riff 16x (after 4x the drums enter)

    Riff A
    Gb|----------------|----------------|----------------|----------------|
    Db|----3-----2-----|----------------|----3-----2-----|------------4---|
    Ab|----3-----2-----|4-----3-----3-4-|----3-----2-----|4-----3-----4---|
    Eb|2-2---2-2---2-2-|4-2-2-3-2-2-----|2-2---2-2---2-2-|4-2-2-3-2-2-----|
    P.M. . . . . . . . . . . . . . . . . . . . . . . . . . . .

    Both Gtrs play Riff A 2x

    Riff B1
    Gb|-Left-Gtr--------|----------------|
    Db|-----------------|----------------|
    Ab|/4~----3~--------|--------5-6-5---|
    Eb|-------------5---|--4-----3-4-3---|
    | | |
    Gb|-Right-Gtr-------|----------------|
    Db|/6~----5~--------|----------------|
    Ab|-------------7---|--6-----5-6-5---|
    Eb|-----------------|----------------|
    P.M . .

    Both Gtrs play Riff B1
    Both Gtrs play Riff A 4x with lyrics:

    Time melts away in this living inferno
    Trapped by a cause that I once understood
    Feeling a sickness building inside of me
    Who will I really have to answer to

    Riff C
    Gb|-----------------|----------------|----------------|----------------|
    Db|-----------------|----------------|----------------|----------------|
    Ab|/4~----3~--------|--------5-6-5---|----------------|----------------|
    Eb|-------------5---|--4-----3-4-3---|2-2-2-2-2-2-2-2-|2-2-2-2-2-2-2-2-|
    P.M . . . . . . . . . . . . . . . . . .

    Both Gtrs Play Riff C 3.5x with lyrics:

    March on through the rivers of red
    Souls drift, they fill the air
    Forced to fight behind
    The crooked cross.

    Both Gtrs play Riff A 6x, lyrics after 2x:

    Do only what is expected of me
    With no emotions my feelings suppressed
    Blind obedience carries me through it all
    Conscience a word I learned to forget.

    Both Gtrs play Riff C 3x, then Riff B1, with these lyrics:

    March on through the rivers of ... (same as before)

    Then both Gtrs play
    Gb|----------------|----------------|
    Db|----------------|----------------|
    Ab|4---------------|----------------|
    Eb|2---------------|-----rest-------|
    ^---quick chord

    Riff D
    Gb|----------------|----------------|
    Db|----------------|----------------|
    Ab|----4-----4-----|3---3---7-7-6---|
    Eb|2-2---2-2---2-2-|--2-----5-5-4---|
    P.M. . . . . . . . . . . . .

    Right Gtr plays Riff D 4x while Left Gtr solos
    Left Gtr plays Riff D 4x while Right Gtr solos

    Then this little intermission:
    Left Gtr continues P.M like in Riff D

    Gb|-Left-Gtr-------|----------------|----------------|----------------|
    Db|----------------|----------------|----------------|----------------|
    Ab|----4-----4-----|3---3---7-7-6---|----4-----4-----|3---3---7-7-6---|
    Eb|2-2---2-2---2-2-|--2-----5-5-4---|2-2---2-2---2-2-|--2-----5-5-4---|
    | | | | |
    Gb|-Right-Gtr------|----------------|----------------|----------------|
    Db|----------------|----------------|----------------|----------------|
    Ab|----------------|--------7-7-6---|----------------|--------7-7-6---|
    Eb|----------------|--------5-5-4---|----------------|--------5-5-4---|

    Gb|-Left-Gtr-------|----------------|----------------|----------------|
    Db|----------------|----------------|----------------|----------------|
    Ab|----4-----4-----|3---3---7-7-6---|----4-----4-----|3---3---7-7-6---|
    Eb|2-2---2-2---2-2-|--2-----5-5-4---|2-2---2-2---2-2-|--2-----5-5-4---|
    | | | | |
    Gb|-Right-Gtr------|----------------|----------------|----------------|
    Db|----6-----6-----|5---5-----------|----6-----6-----|5---5-----------|
    Ab|----4-----4-----|3---3-----------|----4-----4-----|3---3---7-7-6---|
    Eb|----------------|----------------|----------------|--------5-5-4---|

    Then Left Gtr plays Riff D 4x while Right Gtr solos
    Then Right Gtr plays Riff D 4x while Left Gtr solos

    Riff B2
    Gb|-Left-Gtr--------|----------------|
    Db|-----------------|----------------|
    Ab|/4~----3~--------|--------5-6-5---|
    Eb|-------------5---|--4-----3-4-3---|
    | | |
    Gb|/6~----5~--------|----------------|
    Db|-------------7---|--6-----5-6-5---|
    Ab|-----------------|----------------|
    Eb|-Right-Gtr-------|----------------|
    P.M . .

    Play Riff B2
    Both Gtrs play Riff A 4x with lyrics:

    Time melts away in this living inferno
    Trapped by a cause that I once understood
    Blind obedience carries me through it all
    Do only what is expected of me.

    Both Gtrs play Riff C 2x \
    Both Gtrs play Riff B1 and last half of Riff C >--all with lyrics:
    Both Gtrs play Riff B2 and last half of Riff C /

    March on through the rivers of ... (same as before)

    And, end on the quick chord:
    Gb |---|
    Db |---|
    Ab |-4-|
    Eb |-2-|


    Name: Mandatory suicide
    Album: South Of Heaven
    By: Slayer


    ~=vIBRATE STRING
    /=SLIDE



    Intro Repeat 8x
    |-----------------------------|
    |-----------------------------|
    |----------------10-9~--------|
    |----------9-8----------------|
    |-5-4-3-2------7--------------|
    |-3-2-1-0---------------------|

    2nd Riff Repeat 5x
    |-----------------------------|
    |-----------------------------|
    |-----------------------------|
    |-5--3-2----------------------|
    |-5--3-2----------------------|
    |-3--1-0----------------------|


    3rd Riff Repeat 8x 1x
    |-------------------------------------|----|
    |-------------------------------------|----|
    |-------------------------------------|----|
    |---5---5-4-3---5---5-4-3---5---5-4-3-|-6-3|
    |-0-3-0-3-2-1-0-3-0-3-2-1-0-3-0-3-2-1-|-4-1|


    4th Riff when start singing Repeat 5x
    |--------------------------------|
    |--------------------------------|
    |--------------------------------|
    |--------------------------------|
    |-------------------------5--3---|
    |-0-0-0-0-0-0-0-0-0-0-0-0-3--1---|

    5th Riff Repeat 4x
    |-----------------------------------------|
    |-----------------------------------------|
    |-----4-3-------4-3-------4-3-------4-3---|
    |---------5~--------5~--------5~--------5~||
    |-2-2--------2-2-------2-2------2-2-------|
    |-0-0--------0-0-------0-0------0-0-------|


    6th Riff Repeat 4x 1x
    |--------------------|----|
    |--------------------|----|
    |--------------------|----|
    |--------------------|----|
    |--2-2-9--8----------|-6-3|
    |--0-0-7--6-0-3/0----|-4-1|


    4th Riff Repeat 5x
    |--------------------------------|
    |--------------------------------|
    |--------------------------------|
    |--------------------------------|
    |-------------------------5--3---|
    |-0-0-0-0-0-0-0-0-0-0-0-0-3--1---|

    3rd Riff Repeat 8x 1x
    |------------------------------------|----|
    |------------------------------------|----|
    |------------------------------------|----|
    |------------------------------------|----|
    |---5---5-4-3---5---5-4-3---5---5-4-3|-6-3|
    |-0-3-0-3-2-1-0-3-0-3-2-1-0-3-0-3-2-1|-4-1|

    Riff 1 Intro Repeat 4x
    |---------------------------------|
    |---------------------------------|
    |----------------10-9~------------|
    |----------9-8--------------------|
    |-5-4-3-2------7------------------|
    |-3-2-1-0-------------------------|

    Behind the solo 7th Riff Repeat 6x
    |--------------------------------|
    |--------------------------------|
    |--------------------------------|
    |--------------------------------|
    |-2--2-2-2-3-3-5-5-3-3-3-3-3-3-3-|
    |-0--0-0-0-1-1-3-3-1-1-1-1-1-1-1-|



    5th Riff Repeat 4x
    |-------------------------------------------|
    |-------------------------------------------|
    |-----4-3-------4-3-------4-3--------4-3----|
    |---------5~--------5~--------5~---------5~-|
    |-2-2-------2-2-------2-2--------2-2--------|
    |-0-0-------0-0-------0-0--------0-0--------|

    6th Riff 1x
    |---------------|----|
    |---------------|----|
    |---------------|----|
    |-2-2--9-8------|-6-1|
    |-0-0--7-6--/3-0|-4-1|


    4th Riff Rereat 4x
    |-----------------------------|
    |-----------------------------|
    |-----------------------------|
    |-----------------------------|
    |-------------------------5--3|
    |-0-0-0-0-0-0-0-0-0-0-0-0-3--1|

    3rd Riff Repeat 8 x
    |----------------------------------------|
    |----------------------------------------|
    |----------------------------------------|
    |----------------------------------------|
    |---5---5-4-3---5---5-4-3---5---5-4-3----|
    |-0-3-0-3-2-1-0-3-0-3-2-1-0-3-0-3-2-1----|

    Last Riff 7th Riff Repeat 20x
    |-------------------------------|
    |-------------------------------|
    |-------------------------------|
    |-------------------------------|
    |-2--2-2-2-3-3-5-5-3-3-3-3-3-3-3|
    |-0--0-0-0-1-1-3-3-1-1-1-1-1-1-1|
    Slayer - Ghosts Of War


    As with all guitar tablature, a mono-spaced font
    (e.g. Courier or Monaco) is required to display properly...

    Fig. 1
    |-----------------------------------
    |-----------------------------------
    |-----------------------------------
    |------------------3-----2----------
    |--5-------4-------------------3----
    |----222222--222222--2222--2222--2--


    Fig. 2
    |-----------------------------------
    |-----------------------------------
    |------------------------------3-2--
    |------------------------------3-2--
    |------3-2-----2-1-----3-2----------
    |--4444----4444----4444----3333-----

    |-----------------------------------
    |-----------------------------------
    |------------------------------1-2--
    |------------------------------1-2--
    |------3-2-----2-1-----3-2----------
    |--4444----4444----4444----3333-----


    Fig. 3
    |-------------------------------------------------
    |-------------------------------------------------
    |-------------------------------------------------
    |----------------------------------------------3--
    |------------------------------7---2-------5---1--
    |--33333333333333333333333333335---0-------3-0----
    |__||__||__||__||__||__||__|


    Fig. 4 ends [1 & 3]
    |---------------------------||----------||
    |---------------------------||----------||
    |---------------------------||----------||
    |---------------------------||----------||
    |------------------2--------||----------||
    |--0-1111113-111111--111111-||-4-1-2-1--||

    end [2] end [4]
    |----------||----------||
    |----------||----------||
    |----------||------3---||
    |----6-----||--5---3---||
    |----6-----||--5---1---||
    |--1-4-----||--3-0-----||


    Fig. 5
    |------------------------------------
    |------------------------------------
    |------------------------------------
    |--6-----5-----9---8-----------------
    |--6-----5-----9---8-----------------
    |--4-----3-----7---6-66666666666666--
    _||__||__||__|

    Fig. 6
    [solo 1]
    |----------------------------------
    |----------------------------------
    |----------------------------------
    |----------------------------------
    |----------------------------9-----
    |--333333334-333333333333334-7-----
    |__||__|| _||__||__||__||

    |----------------------------------
    |----------------------------------
    |----------------------------------
    |----------------------------------
    |--------------------------8-7-6---
    |--333333334-333333333333336-5-4---
    |__||__|| _||__||__||__|

    [solo two: same as Fig. 4]


    Fig. 7
    [gtr. 1]
    |------------------------------------
    |------------------------------------
    |--------------------10-9------9-8---
    |----7-8---8-7------------10-9-------
    |--0-----0-----8-7-0-----------------
    |------------------------------------

    |------------------------------------
    |------------------------------9-8---
    |--------------------10-9----9-------
    |----7-8---8-7------------10---------
    |--0-----0-----8-7-0-----------------
    |------------------------------------

    [gtr. 2 plays A....C..G#....C.., root open 5th string, then]
    [one octave higher, root 4th string 7th fret.]


    Fig. 8
    |------------------------------------
    |------------------------------------
    |------------------------------------
    |------------------------------------
    |------------------------------------
    |--000-0-0-000-0-0-000-0-0-000-0-0---


    Fig. 9
    |------------------------------------
    |------------------------------------
    |------------------------------------
    |--4---------------5-------3---------
    |--4---------------5-------3---------
    |--2---------------3-------1---------

    |------------------------------------
    |------------------------------------
    |------------------------------------
    |------------------------------------
    |------------------------------------
    |--000-0-0-000-0-0-000-0-0-000-0-0---


    Fig. 10
    |-------------------------------||-------------------------------|
    |-------------------------------||-------------------------------|
    |-------------------------------||---------------------------4-3-|
    |---2-3---3-2-------5-4-----4-3-||---2-3---3-2-------5-4---4-----|
    |-------------3-2-------5-4-----||-------------3-2-------5-------|
    |-0-----0---------0-------------||-0-----0---------0-------------|
    Read between the lies
    By: Slayer
    Album: South of Heaven
    Transcribed by: Mike Bower
    Tune down ? step
    Riff 1 *= pm
    |---------------------------------------------------------------|
    |---------------------------------------------------------------|
    |---------------------------------------------------------------|
    |-----------------5-----5-----5-----5-----5---------------------|
    |---2-3--5-4------4-----4-----4-----4-----4---------------------|
    |---0-1--3-2--0-0---0-0---0-0---0-0---0-0-----------------------|
    * * * * * * * * * *
    Riff 2
    |---------------------------------------------------------------|
    |---------------------------------------------------------------|
    |---------------------------------------------------------------|
    |-------------------7-6-------6-5-------------------------------|
    |---------7-8-----8---------7-----------------------------------|
    |---0-0-0-----0-0-------0-0-------------------------------------|
    pm---| * * * *
    Riff 2b
    |---------------------------------------------------------------|
    |---------------------------------------------------------------|
    |-------------------7-6-------6-5-------------------------------|
    |---------7-8-----8---------7-----------------------------------|
    |---------------------------------------------------------------|
    |---0-0-0-----0-0-------0-0-------------------------------------|
    pm---| * * * *
    Riff 3
    |---------------------------------------------------------------|
    |---------------------------------------------------------------|
    |---------------------------------------------------------------|
    |---2-----2------2----------------------------------------------|
    |---1-----1------1----------------------------------------------|
    |-----0-0---0-0----0-0-0-0-3p0----------------------------------|
    * * * * pm-----|
    Riff under solo
    |-----------------------------------------------------------------|
    |-----------------------------------------------------------------|
    |-----------------------------------------------------------------|
    |--------------------------------4--------------------------------|
    |-------4-----------4-3----------2--------------------------------|
    |---2-2---2-2-2-2-2------2-2-2-2----------------------------------|
    * * pm-------| pm---------------------------------------|
    |-----------------------------------------------------------------|
    |-----------------------------------------------------------------|
    |-----------------------------------------------------------------|
    |-----------------------------4\3---------------------------------|
    |-------4---------4-3---------2\1---------------------------------|
    |---2-2---2-2-2-2-----2-2-2-2-------------------------------------|
    * * pm-----| pm------------------------------------------|
    That's pretty much the whole song. All you need is this last riff:
    |---------------------------------------------------------------|
    |---------------------------------------------------------------|
    |---------9-------8---------------------------------------------|
    |-----------7-------7-6-----7-6-5-------------------------------|
    |---------------------------------------------------------------|
    |---0-0-0-----0-0-------0-0-------------------------------------|
    * * * * * * *

  10. #10
    Slayer Akorları nevermore - ait Kullanıcı Resmi (Avatar)
    Üyelik tarihi
    Mar-2009
    Bulunduğu yer
    Bornova
    Mesajlar
    12.313
    Konular
    2869
    SLAYER
    CLEANSE THE SOUL
    From their fine album 'South of Heaven'



    Comments:

    Only the bottom four strings required for this tune, so I'll leave out
    the first two.

    Riff B below I had to make a guess on, 'cause it's hard to hear and
    really fast. It'd be great if people told me if they think it's
    close or not.

    Time signature changes are shown like this:
    |----
    |3:--
    |4:--
    |----

    This means to repeat the last two measures:
    ----|//--
    --*-//---
    ---//-*--
    --//|----

    As usual, guitars are tuned to Eb. Hanneman has the left stereo channel.

    Starting Tempo: 145 bpm

    Intro Riff
    Gb|---|-LeftGtr--------|----------------|----------------|
    Db|---|----------------|----------------|----------------|
    Ab|-5-|4-------------5-|4-------------5-|4-------------5-|
    Eb|-3-|2-------------3-|2-------------3-|2-------------3-|
    | | | | |
    Gb|---|-RightGtr-------|----------------|----------------|
    Db|---|----------------|----------------|----------------|
    Ab|-5-|4-------------5-|4-------------5-|4-------------5-|
    Eb|-3-|2-------------3-|2-------------3-|2-------------3-|
    P.M . . . .

    Tempo change to 220 bpm (!) /---repeat this 3x------------\
    Gb|-LeftGtr--------|----------------||----------------|------------||
    Db|----------------|----------------||*---------------|-----------*||
    Ab|4-------5---4---|----------------||*-------5---4---|-----------*||
    Eb|2-------3---2---|----------------||--------3---2---|------------||
    | | || | ||
    Gb|-RightGtr-------|----------------||----------------|//----------||
    Db|9---------------|7-------6/9-----||*-------------*-//----------*||
    Ab|7-------5---4---|5-------4/7-----||*--------------//-*---------*||
    Eb|--8-7-0-3---2---|--000000----0000||--------------//|------------||
    P.M . . . ...... ....

    Riff A
    Gb|----------------|----------------|
    Db|9---------------|7-------6/9-----|
    Ab|7-------5---4---|5-------4/7-----|
    Eb|--8-7-0-3---2---|--000000----0000|
    P.M . . . ...... ....

    Both Gtrs play Riff A 4x

    Riff B
    Gb|----------------|--------5p4---4/|7---------------|--------5p4-----|
    Db|----------------|--------5p4---4/|7---------------|--------5p4---5-|
    Ab|2---------------|----------------|----------------|--------------5-|
    Eb|0000000000000000|00000000----0---|--00000000000000|00000000----0---|
    P.M ............... ........ . .............. ........ .

    Gb|----------------|--------5p4-----|----------------|-----------------|
    Db|----------------|--------5p4---5-|----------------|--------10p9-8---|
    Ab|----------------|--------------5-|----------------|--------10p9-8---|
    Eb|0000000000000000|00000000----0---|0000000000000000|00000000---------|
    P.M................ ........ . ................ ........
    RightGtr slides quickly down (Ab?) string here---^

    Both Gtrs play Riff B 4x with lyrics:

    Body that rest before me
    With every dying breath
    Spellbound and gagged
    I commence your flesh to dirt

    Both Gtrs play Riff A 4x
    Both Gtrs play Riff B 4x with lyrics:

    Body that lay before me
    In everlasting death
    Entombed in abscess
    To rot and lie stinking in the earth

    Both Gtrs play Riff A 3x followed by

    Gb|----------------|---------|
    Db|9---------------|2:-------|
    Ab|7-------5---4---|4:-rest--|
    Eb|--8-7-0-3---2---|---------|
    P.M . . .

    Riff C
    Gb|----------------|----------------|
    Db|----4-----4\3---|----------------|
    Ab|--0-2-----2\1---|----------------|
    Eb|0-----2-3-----0-|0000000000000000|
    P.M. . . . . ................

    Left Gtr plays Riff C 6x while Right Gtr solos

    Riff D
    /-- 1,3 ---------\/-- 2 -----------\/-- 4 ----------\
    Gb||-----------------|----------------||----------------||----------------|
    Db||*----4-----4\3---|---------------*||--------5\4----*||--6\5---5\4-----|
    Ab||*--0-2-----2\1---|---------------*||--------3\2-4/5*||--4\3---3\2-4/5-|
    Eb||-0-----2-3-----0-|0-0-0-0-0-0-0-0-||0-0-0-0-----2/3-||0-----0-----2/3-|
    P.M . . . . . . . . . . . . . . . . . . .

    Both Gtrs play Riff D 2x with lyrics:

    Empty altar awaits its victim
    Stained glass windows black
    Candles burn the midnight oil
    Incense fills the night

    Observing trance awakening state
    Lying still unknowing
    Reciting the passages of time
    Prepare for the impaling

    Then both Gtrs play the following interlude:
    Gb|--------------|------------|------------|-----------|
    Db|3:--------5-4-|--------5-6-|--------5-4-|2:-----3-2-|
    Ab|4:----5-6-----|----5-4-----|----5-6-----|4:-3-4-3-2-|
    Eb|--------------|------------|------------|---3-4-----|

    Gb|--------------|------------|------------|
    Db|3:--------5-4-|--------5-6-|--------5-4-|
    Ab|4:----5-6-----|----5-4-----|----5-6-----|
    Eb|--------------|------------|------------|

    Right Gtr plays Riff D 2x while Left Gtr solos

    Riff E1
    Gb|--------------|------------|-----------|
    Db|3:----5-4-----|----4-3-----|2:-----2-1-|
    Ab|4:--------5-4-|--------4-3-|4:-2-3-2-1-|
    Eb|--------------|------------|---2-3-----|

    Riff E2
    Gb|--------------|------------|-----------|
    Db|3:------------|------------|2:-----2-1-|
    Ab|4:----5-4-----|----4-3-----|4:-2-3-2-1-|
    Eb|----------5-4-|--------4-3-|---2-3-----|

    Both Gtrs play Riff E1
    Left Gtr plays Riff E1 while Right Gtr plays Riff E2
    Both Gtrs play Riff E1 2x

    Then some very cool riffery:
    Gb|--LeftGtr-----|----8-7-----|------------|---5-4-----|
    Db|3:----6-5-----|--------8-7-|----6-5-----|2:-----5-4-|
    Ab|4:--------6-5-|------------|--------6-5-|4:---------|
    Eb|--------------|------------|------------|-----------|
    | | | | |
    Gb|--RightGtr----|----8-7-----|------------|---5-4-----|
    Db|3:----6-5-----|--------8-7-|----6-5-----|2:-----5-4-|
    Ab|4:--------6-5-|------------|--------6-5-|4:---------|
    Eb|--------------|------------|------------|-----------|

    Gb|--LeftGtr-----|----8-7-----|------------|---5-4-----|
    Db|3:----6-5-----|--------8-7-|----6-5-----|2:-----5-4-|
    Ab|4:--------6-5-|------------|--------6-5-|4:---------|
    Eb|--------------|------------|------------|-----------|
    | | | | |
    Gb|--RightGtr----|----8-7-----|------------|---8-7-----|
    Db|3:----6-5-----|--------8-7-|----6-5-----|2:-----8-7-|
    Ab|4:--------6-5-|------------|--------6-5-|4:---------|
    Eb|--------------|------------|------------|-----------|

    Gb|--LeftGtr-----|------------|------------|-----------|
    Db|3:----6-5-----|----8-7-----|----6-5-----|2:-5-4-----|
    Ab|4:--------6-5-|--------8-7-|--------6-5-|4:-----5-4-|
    Eb|--------------|------------|------------|-----------|
    | | | | |
    Gb|--RightGtr----|----8-7-----|------------|---5-4-----|
    Db|3:----6-5-----|--------8-7-|----6-5-----|2:-----5-4-|
    Ab|4:--------6-5-|------------|--------6-5-|4:---------|
    Eb|--------------|------------|------------|-----------|

    Gb|--LeftGtr-----|----8-7-----|------------|
    Db|3:----6-5-----|--------8-7-|----6-5-----|
    Ab|4:--------6-5-|------------|--------6-5-|
    Eb|--------------|------------|------------|
    | | | |
    Gb|--RightGtr----|----8-7-----|------------|
    Db|3:----6-5-----|--------8-7-|----6-5-----|
    Ab|4:--------6-5-|------------|--------6-5-|
    Eb|--------------|------------|------------|

    Both Gtrs play Riff D 2x with lyrics:

    Death's an art, flesh and earth never part
    A power of the mind
    Death shines on the air of silence
    A ritual of endless time

    Purged of your dead body
    Sacrificed of your life
    Unearthly ritual sealed in fire
    Enter the kingdom of desire.

    However, the second time through the pattern, substitute the following
    for the 4th repeat (both Gtrs):
    Gb|----------------|----------------|
    Db|----4-----4\3---|--5-5---4-------|
    Ab|--0-2-----2\1---|003-3-0-2----5--|
    Eb|0-----2-3-------|-------------3--|
    P.M. . . . .

    Then replay the intro pattern (both Gtrs):
    Tempo back to 145 bpm
    Gb|----------------|----------------|----------------|
    Db|----------------|----------------|----------------|
    Ab|4-------------5-|4-------------5-|4-------------5-|
    Eb|2-------------3-|2-------------3-|2-------------3-|
    P.M . . .

    Tempo changes back to 220
    Gb|-LeftGtr--------|----------------|
    Db|----------------|----------------|
    Ab|4-------5---4---|--------14\\\\\\|
    Eb|2-------3---2---|--------12\\\\\\|
    | | |
    Gb|-RightGtr-------|----------------|
    Db|9---------------|7-------6/9-----|
    Ab|7-------5---4---|5-------4/7-----|
    Eb|--8-7-0-3---2---|--000000----0000|
    P.M . . . ...... ....

    Riff F
    Gb|----------------|----------------|
    Db|----------------|7-------6-------|
    Ab|----------------|5-------4-------|
    Eb|0000000000000000|--000000--000000|
    P.M................ ...... ......

    Left Gtr plays Riff F 6x while Right Gtr solos
    then Left Gtr plays last half of Riff F while Right Gtr solos
    Song ends on this bar, while King's lead ends:
    Gb|----------------|
    Db|9---------------|
    Ab|7-------5---4---|
    Eb|--8-7-0-3---2---|
    P.M . . .




    Dissident Agressor
    Performed by Slayer
    From the Album "South of Heaven
    Transcribed by Lordnatas

    Tis me Lordnatas here once again tabbing out yet another Slayer Tune.This one
    is fairly easy,but i know there are some of you out there to lazy to figure
    it out yourselfs so here goes.Tuneing is E flat.

    Intro
    Guitar 1

    D-9--------------------------------------------------------------
    A-7----------------------------------------------xxxxxxxxxxxxxxxx
    E-0----------------------------------------------xxxxxxxxxxxxxxxx
    pick slide
    Guitar 2

    A-2---2---2---2---|-2---2---2---2---|-2---2---2---2---|-2---2---2---2---
    E-0-0-0-0-0-0-0-0-|-0-0-0-0-0-0-0-0-|-0-0-0-0-0-0-0-0-|-0-0-0-0-0-0-0-0-
    . . . . . . . . . . . . . . . .

    Verses(both guitars)

    r r
    A-2---------------2------------7-
    E-0-0000-3-0-0000-0-0000-3-0-0-5- (this plays a total of 7 times)
    .... .... .... .

    r r r
    D------------5-4-4-2-0-4--------
    A-2--------------------2-------- (substitute this riff on the 8th time)
    E-0-0000-3-0--------------------
    .... .

    Chorus

    Guitar 1

    D--------------------------------------------------5----------
    A-2------2------2------------2------2-----------5-5--7---------(plays a total
    E-0-0000-0-0000-0-0000-5-6-7-0-0000-0-0000-5-6-7-7-------------Of 2 times)
    .... .... .... .... ....

    Guitar 2


    E---------12------------12------------------------------------
    B---------15------------15------------------------------------
    G ** **
    D
    A Guitar 2 plays the same as guitar 1 except were noted
    E
    **= Bend the bottom note(15) 1 step untill it matches the pitch
    of the top note(12)


    2nd chorus

    Its the same as the first but on the second time add this to the end

    G----------5----------------
    D----5---5---7--------------
    A-567--7--------------------
    E---------------------------

    Solo

    The riff behind the solo is the same as the first chorus except that it is
    played on A,D and G instead of E,A,D.

    After chous


    Guitar one ______________ ______________
    | 1. |2.
    G-9--7-9-|-9--7-9-|-9-7-9\4-5--------------||-5---------------
    A-7--5-7-|-7--5-7-|-7-5-7\2-3----5-4-------||-3------5--4-----
    E--------|--------|----------000-3-2-------||----000-3--2-----
    ... ...
    Guitar 2

    G-9--7-9------9--7-9------9--7-9\4-5-12-11-||-5------12-11----
    A-7--5-7------7--5-7------7--5-7\2-3-10-9--||-3--333-10-9-----
    E-------00000-------00000------------------||-----------------
    ..... ..... ...



    2nd chorus

    same as first except guitar 2 plays

    E-15---------15-
    B-18---------18-
    G ** **
    D
    A
    E


    Ending

    Guitar 1

    G--------------------5-----------------------------------------------
    D---------5------5-5--7---------5--------5---------(9)---------------
    A-----5-5--7-567--7---------5-5---7-567----------5--7----------------
    E-567--7----------------567--7--------------567----------------------

    Guitar

    E-19------------(12 times)
    B-22------------
    G **
    D
    A
    E

    Solo
    approximation in pitches, figure out the whammy part yourself its easy

    whammy 1.5 bends, ends with 2.5 whammy bar dive 1, 3.5 up 5
    |---------------------------------|-------------|-------------------|
    |-harm----------------------------|-19-\-11-----|------------0------|
    |-~2.5----------------------------|-------------|-------------------|
    |---------------------------------|-------------|-------------------|
    |------------------------------0--|-------------|-------------------|
    |---------------------------------|-------------|-------------------|


    dive 4 whammy shakes at 6 dive .5 up .5, down 1
    |--13--------|-h20-h21------------|--5---------|------------------|----|
    |------------|--------------------|-harmonic---|-harmonic---------|----|
    |------------|----------h17--h16--|------------|--4--4------------|----|
    |------------|--------------------|------------|------------------|----|
    |------------|--------------------|-------0----|-----------0------|----|
    |------------|--------------------|------------|------------------|----|

    depress 1.5 before striking then raise 1.5 and drop 1
    |-----------------------------------------------------------------|
    |-----------------------------------------------------------------|
    |--0--------------------------------------------------------------|
    |-----------------------------------------------------------------|
    |-----------------------------------------------------------------|
    |-----------------------------------------------------------------|

    dive 3.5 depress 4 before striking dive 5.5 pre-depress 1.5
    |----------------|-17------------------------|-20------------17---|
    |--harmonic------|---------------------------|------------18------|
    |---4------------|---------------------------|--------------------|
    |----------------|---------------------------|--------------------|
    |---------4---0--|---------------------------|--------------------|
    |----------------|---------------------------|--------------------|

    .5 bends go up 1.5
    |-----------|-----------------------------------------------------|
    |-harmonic--|----harmonic-----------------------------------------|
    |--4--------|--3--4-----------------------------------------------|
    |-----------|-----------------------------------------------------|
    |-----------|-----------------------------------------------------|
    |-----------|-----------------------------------------------------|


    Well there it is.Told ya it was easy.Heres a hint.If you turn your stereos
    pan to the left or right you will here the seperate guitar parts.If you
    are not a soloist(like myself)i suggest turning it to the left speaker once
    you get the hang of it,and jam out with it.Most Slayer is set up like this.
    Have Fun!!!


    Spill the Blood
    By: Slayer
    Album: South of Heaven
    Transcribed by: Mike Bower
    Tune down ? step

    Intro
    |-------0-------0-------0-------0-------0-------0-------0-------|
    |-----0---0---0---0---0---0---0---0---0---0---0---0---0---0-----|
    |---4-------4-------3-------3-----------------------------------|
    |-----------------------------------4-------4-------5-----------|
    |---------------------------------------------------------------|
    |---------------------------------------------------------------|

    |-------0---------|
    |-----0---0-------|
    |-----------------|
    |---3-------------|
    |-----------------|
    |-----------------|
    W/ volume knob or pedal
    |---------------------------------------------------------------|
    |---------------------------------------------------------------|
    |---------------------------------------------------------------|
    |---4---------3-------------------------------------------------|
    |---2---------1--------4-------5------3-------------------------|
    |----------------------2-------3------1-------------------------|
    Then, guitar 1 plays above riff w/distortion. Then play:
    |---------------------------------------------------------------|
    |---------------------------------------------------------------|
    |--------------8-----7------------------------------------------|
    |-------9-10-----9-----8----------8----5-7-8-5-7-8---5-7-8------|
    |-----7--------------------7-10-9----5-------------5------------|
    |---0--------0-----0-----0--------------------------------------|
    * * * *
    |------------------------|
    |------------------------|
    |--6----5----------------|
    |----7----6--------------|
    |------------------------|
    |------------------------|



    Rhy Fig 1
    |-----------------------------------------------------------------|
    |-----------------------------------------------------------------|
    |-----------------------------------------------------------------|
    |-----------------------------------------------------------------|
    |-2-----3--5--3--2-------------2-----3--5--3--2-------------5-6---|
    |-0-0-0-1--3--1--0-0-0-0-0-0-0-0-0-0-1--3--1--0-0-0-0-5-6-7-------|
    * * pm---------| *--------------------------------| * * *
    Rhy Fig 2
    |-----------------------------------------------------------------|
    |-----------------------------------------------------------------|
    |-----------------------------------------------------------------|
    |-----------------------------------------------------------------|
    |--------3---2----------------------------------------------------|
    |--2-2-2---2---2-4-5-2-2-2-5-4-2-4--------------------------------|
    pm---| * pm-------------------------------------------------|
    |-----------------------------------------------------------------|
    |-----------------------------------------------------------------|
    |-----------------------------------------------------------------|
    |-----------------------------------------------------------------|
    |--2-----3--5--3--2-------------5-6-------------------------------|
    |--0-0-0-1--3--1--0-0-0-0-5-6-7-----------------------------------|
    * * * * *
    Rhy Fig 3
    |---------------------------------------------------------------|
    |---------------------------------------------------------------|
    |---------------------------------------------------------------|
    |--------9---8---4-5---------4-3--------------------------------|
    |--------7---6---2-3-----4-5------------------------------------|
    |--0-0-0---0---0-----0-0----------------------------------------|
    * * * * * pm-----|
    |---------------------------------------------------------------|
    |---------------------------------------------------------------|
    |----------------------------4-5--------------------------------|
    |--------9---8---4-5-----4-3------------------------------------|
    |--------7---6---2-3-4-5----------------------------------------|
    |--0-0-0---0---0------------------------------------------------|
    * * * * * * *
    Riff under solo #1
    |---------------------------------------------------------------|
    |---------------------------------------------------------------|
    |---------------------------------------------------------------|
    |--------9-8-4-5------------------------------------------------|
    |--------7-6-2-3---------6--------------------------------------|
    |--0-0-0---------0-0-0-0-4--------------------------------------|
    * * * * * * *


2 Sayfadan 1. 12 SonSon