Toplam 1 sonuçtan 1 ile 1 arasındakiler gösteriliyor.

Konu: A Perfect Circle Gitar Tabları

  1. #1
    A Perfect Circle Gitar Tabları boogee - ait Kullanıcı Resmi (Avatar)
    Üyelik tarihi
    Mar-2007
    Bulunduğu yer
    İzmir
    Mesajlar
    5.523
    Konular
    413

    Talking A Perfect Circle Gitar Tabları


    3 Libras / A Perfect Circle

    Intro

    Finger picking on an acoustic


    |----------------------------------------|
    |-3-----3---3-----3---3-----3---/7-----7-|
    |---0---------0---------0----------0-----|
    |----------------------------------------|
    |-3---3-----3---3-----3---3-----/7---7---|
    |----------------------------------------|

    |------------------------------------------|
    |-3-----3---3-----3---/10-------10/7-----7-|
    |---0---------0------------0---------0-----|
    |------------------------------------------|
    |-3---3-----3---3-----/10----10---/7---7---|
    |------------------------------------------|

    |----------------------------------------|
    |-3-----3---3-----3---3-----3---/7-----7-|
    |---0---------0---------0----------0-----|
    |----------------------------------------|
    |-3---3-----3---3-----3---3-----/7---7---|
    |----------------------------------------|

    |------------------------------------------|
    |-3-----3---3-----3---/10-------10/7-----7-|
    |---0---------0------------0---------0-----|
    |------------------------------------------|
    |-3---3-----3---3-----/10----10---/7---7---|
    |------------------------------------------|

    |------------------------------0-|
    |-/8-----8--8-----8--8-----8---8-|
    |----0--------0--------0-------0-|
    |------------------------------0-|
    |-/8---8----8---8----8---8-----8-|
    |--------------------------------|

    Verse

    |--------------------------------------|
    |-3-----3---3-----3---/5-----5/6-----6-|
    |---0---------0----------0-------0-----|
    |--------------------------------------|
    |-3---3---------0-----/5---5-------0---|
    |-----------3------------------6-------|

    At the end of the forth time
    |----------|
    |-7------7-|
    |---0------|
    |----------|
    |-7----7---|
    |----------|

    Chorus

    |----------------------------------------|
    |-3-----3---3-----3---3-----3/10------10-|
    |---0---------0---------0--------0-------|
    |----------------------------------------|
    |-3---3-----3---3-----3---3--/10---10----|
    |----------------------------------------|

    |----------------------------------------|
    |-/7-----7---7-----7---7-----7---7-----7-|
    |----0---------0---------0---------0-----|
    |----------------------------------------|
    |-/7---7-----7---7-----7---7-----7---7---|
    |----------------------------------------|

    At the end of the chorus


    |-0-|
    |-8-|
    |-0-|
    |-0-|
    |-8-|
    |---|

    Verse 2- same as 1st verse

    Chorus 2- same as 1st chorus


    Bridge

    |---------------------------------|
    |---------------------------------|
    |-----------------8-8-8-8---------|
    |-5-5-5-5-5-5-5-5-8-8-8-8-6-6-6-6-|
    |-5-5-5-5-5-5-5-5-6-6-6-6-6-6-6-6-|
    |-3-3-3-3-3-3-3-3---------4-4-4-4-| x4
    Bridge-part two

    |----------------------------------------|
    |-3-----3---3-----3---3-----3---/7-----7-|
    |---0---------0---------0----------0-----|
    |----------------------------------------|
    |-3---3-----3---3-----3---3-----/7---7---|
    |----------------------------------------|

    |------------------------------------------|
    |-3-----3---3-----3---/10-------10/7-----7-|
    |---0---------0------------0---------0-----|
    |------------------------------------------|
    |-3---3-----3---3-----/10----10---/7---7---|
    |------------------------------------------|

    |----------------------------------------|
    |-3-----3---3-----3---3-----3---/7-----7-|
    |---0---------0---------0----------0-----|
    |----------------------------------------|
    |-3---3-----3---3-----3---3-----/7---7---|
    |----------------------------------------|

    |------------------------------------------|
    |-3-----3---3-----3---/10-------10/7-----7-|
    |---0---------0------------0---------0-----|
    |------------------------------------------|
    |-3---3-----3---3-----/10----10---/7---7---|
    |------------------------------------------|

    |--------------------------------|
    |-/8-----8--8-----8--8-----8---8-|
    |----0--------0--------0---------|
    |--------------------------------|
    |-/8---8----8---8----8---8-----8-|
    |--------------------------------|

    Outro

    |---------------------------------------------------------------------------------|
    |---------------------------------------------------------------------------------|
    |-9-9-97-7-7-7-7-7-7-7-7-7-7-7-7-7-7-7/9-9-9-9-9/1111111111111111111111111111111-|
    |-x-x-x-x-x-x-x-x-x-x-x-x-x-x-x-x-x-x-x-x-x-x-x-x-x-x-x-x-x-x-x-x-x-x-x-x-x-x-x-x-|
    |-7-7-75-5-5-5-5-5-5-5-5-5-5-5-5-5-5-5/7-7-7-7-7/9-9-9-9-9-9-9-9-9-9-9-9-9-9-9-9-|
    |---------------------------------------------------------------------------------|

    |---------------------------------------------------------------------------------|
    |---------------------------------------------------------------------------------|
    |-97-7-7-7-7-7-7-7-7-7-7-7-7-7-7-7/9-9-9/11111111111111111111111111111111111111--|
    |-x-x-x-x-x-x-x-x-x-x-x-x-x-x-x-x-x-x-x-x-x-x-x-x-x-x-x-x-x-x-x-x-x-x-x-x-x-x-x---|
    |-75-5-5-5-5-5-5-5-5-5-5-5-5-5-5-5/7-7-7/9-9-9-9-9-9-9-9-9-9-9-9-9-9-9-9-9-9-9---|
    |---------------------------------------------------------------------------------|

    |---------------------------------------------------------------------------------|
    |---------------------------------------------------------------------------------|
    |-14-14-14/16-16-16-16-16-16-16-16-16-16-16-16-16/19-19-19-19-19-19-19-19-19-19---|
    |--x--x--x--x--x--x--x--x--x--x--x--x--x--x--x--x--x--x--x--x--x--x--x--x--x--x---|
    |-12-12-12/14-14-14-14-14-14-14-14-14-14-14-14-14/17-17-17-17-17-17-17-17-17-17---|
    |---------------------------------------------------------------------------------|

    |---------------------------------------------------------------------------------|
    |---------------------------------------------------------------------------------|
    |-111111111111111111111111119-97-7-7-7-7-7-7-7-7-7-7-7-7-7-7-7-7-7/9-9-9-9-9-9-|
    |--x-x-x-x-x-x-x-x-x-x-x-x-x--x-x-x-x-x-x-x-x-x-x-x-x-x-x-x-x-x-x-x-x-x-x-x-x-x-x-|
    |-9-9-9-9-9-9-9-9-9-9-9-9-9 7-75-5-5-5-5-5-5-5-5-5-5-5-5-5-5-5-5-5/7-7-7-7-7-7-|
    |---------------------------------------------------------------------------------|

    |-----------------------------------------|
    |-----------------------------------------|
    |-7-7-7-7-7-7-7-7-7-7-7-7-7-7/111111-----|
    |--x-x-x-x-x-x-x-x-x-x-x-x-x-x-111111--4~-|
    |-5-5-5-5-5-5-5-5-5-5-5-5-5-5/9-9-9---4~-|
    |--------------------------------------2~-|


    ************

    Imagine / A Perfect Circle

    Intro
    Gtr 1, riff 1a (piano arranged for guitar)

    Eb5/Bb B
    |--------------|-------------|
    |o-------------|------------o| 2x
    |--------------|-------------|
    |--8--8--8--8--|-9--9--9--9--|
    |o-6--6--6--6--|-6--6--6--6-o|
    |--6--6--6--6--|-7--7--7--7--|
    [-let ring---------------]

    Verse (riff 1a, 5x)
    on the 6th time:
    (0:43)
    Gtr 1 Gtr 2, fill 1 (slightly dist. elec.)

    |--------------|-------------------------|
    |--------------|----[(9)-/11---11h12p11]*|
    |--------------|-------------------------|
    |--8--8--8--8--|-9-----------------------|
    |--6--6--6--6--|-6-----------------------|
    |--6--6--6--6--|-7-----------------------|
    *[doubled with voice]

    Verse
    Gtr 1 w/ riff 1a, 4x
    Gtr 2, riff 1b
    Eb5/Bb B

    |----------------------------|------------------------------|
    |o-11-11--11-11--------11-11-|--12-12--12-12--------12-12--o| 4x
    |--8--8---8--8---------8--8--|--8--8---8--8---------8--8----|
    |----------------------------|------------------------------|
    |o---------------------------|-----------------------------o|
    |----------------------------|------------------------------|
    1 + 2 + 3 + 4 + 1 + 2 + 3 + 4 +

    Pre-Chorus (1:19)
    Gtr 1 w/ riff 1, 2x and Gtr 2 w/ fill 1 on last repeat

    Chorus (1:32)
    Gtr 1, riff 2a
    Ab5 B Eb5/Bb 1-3 4

    |----------|---------|---------||----------|-------|-------|
    |o---------|---------|---------||---------o|-------|-------|
    |----------|---------|-8---8---||-8---8----|--8----|-------|
    |--6---6---|-9---9---|---8---8-||---8---8--|--8----|-------|
    |o---6---6-|---6---6-|---6---6-||---6---6-o|--6----|-------|
    |--4---4---|-7---7---|-6---6---||-6---6----|--6----|-------|
    | [-let ring----------------------------------]
    |
    |Gtr 2, riff 2b 1,3 2,4
    |----------|---------|----------|---<<11~~-|-------|-------|
    |o---------|---------|---------o|----------|-------|-------|
    |----------|---------|----------|----------|random feedback|
    |----------|---------|----------|----------|-------|-------|
    |o---------|---------|---------o|----------|-------|-------|
    |--4-------|/7-------|-6--------|/11~------|-------|-------|

    Interlude (1:58)
    Gtr 3, riff 3 (bass arranged for guitar)

    |-----------------------------|
    |o---------------------------o| 4x
    |-----------------------------|
    |-----------------------------| (just play around with that)
    |o------8---6----------------o|
    |--/6----------6-7-6-7----7h9-|

    Gtr 1 w/ riff 1a; and Gtr 3 w/ riff 3, 4x
    under Gtr 2: ( only on the 1st time )

    |-----------------------------|------------------------------|
    |o-11-11--11-11--------11-(11-|--12-12--12-12--12-12)-------o| 2x
    |--8--8---8--8---------8--(8--|--8--8---8--8---8--8-)--------|
    |-----------------------------|------------------------------|
    |o----------------------------|-----------------------------o|
    |-----------------------------|------------------------------|
    1 + 2 + 3 + 4 + 1 + 2 + 3 + 4 +

    Pre-Chorus (2:25)
    Gtr 1 w/ riff 1, 2x and Gtr 2 w/ fill 1 on last repeat

    Chorus (2:38)
    Gtr 1 w/ riff 2a
    Gtr 2 w/ riff 2b

    Verse (3:04)
    Gtr 3, riff 4

    |---------------|--------------|---------------|--------------------|
    |---------------|--------------|---------------|--------------------|
    |---------------|--------------|---------------|--------------------|
    |---------------|--------------|---------------|--------------------|
    |-------8--6----|--------------|-------8--6----|--------------------|
    |--6----------6-|-7------------|--6----------6-|-77--77--77--77(p6)-|

    (3:17)
    Gtr 1 w/ riff 1a, 2x
    Gtr 2 w/ riff 1b, 2x (the 3 play a total of 4 measures at the same time)
    Gtr 3 w/ riff 4, 1x

    Pre-Chorus (3:30)
    Gtr 1 w/ riff 1a, 2x and Gtr 2 w/ the following fill on last measure
    *this fill is played at (3:42) and is doubled by voice*

    |----------------------|
    |-9b11-9b11=====r9p7---|
    |--------------------8-|
    |----------------------|
    |----------------------|
    |----------------------|

    Chorus (3:44)
    Gtr 1 w/ riff 2a, 2x
    Gtr 2 w/ riff 2b, 2x

    Outro (4:10)
    Gtr 1 w/ riff 2a 2x
    Gtr 2 w/ riff 2b 2x

    Gtr 1 (the piano) also plays the melody of the outro
    Ab5 B Eb5/Bb 1. 2.

    |---------|13--11----|---------|-------------|------------|
    |o(11)*---|-------12-|-11-----o|---11--11h12p|----11------|
    |---------|----------|---------|13-----------|-13---------|
    |---------|----------|---------|-------------|-------13---|
    |o--------|----------|--------o|-------------|------------|
    |---------|----------|---------|-------------|------------|
    *not played the 1st time

    Ab5 B Eb5/Bb Ab5 B Eb5/Bb
    |---------|13--11----|---------|-------------|-------|--------|------|||
    |---11----|-------12-|-11------|---11--11h12p|11-----|--------|-16---|||
    |---------|----------|---------|13-----------|-------|-11--13-|-15---|||
    |---------|----------|---------|-------------|---13--|--------|-13---|||
    |---------|----------|---------|-------------|-------|--------|------|||
    |---------|----------|---------|-------------|-------|--------|------|||




    **************************



    Blue / A Perfect Circle


    Tuning: C# F# B E G# C#


    Intro:
    Gtr.1 w/chorus, reverb & delay
    |play 12 ½x |
    |--------|-----------------------------|------------------------------|
    |--------|-------------------6---------|------------------------------|
    |--------|----------------7----7-------|------------------------------|
    |---6p5--|--6p5--5-5-5--5---------6p5--|--6p5--5-5-5--5-5-5-5-5--6p5--|
    |--------|-----------------------------|------------------------------|
    |--------|-----------------------------|------------------------------|
    |Riff A End Riff A|

    Riff A is actually two parts arranged for one.

    Fill 1 (0:53) There`s more to it than this, but this is all you can hear.
    |--------------------------------------|
    |-11----11---------13h14--13p11-----11-|
    |----10----10-------------------11-----|
    |--------------------------------------|
    |--------------------------------------|
    |--------------------------------------|

    Fill2 "Best to keep things in the shallow end..."
    |-------------------------------|
    |-------------------------------|
    |-------------------------------|
    |----5-5----5-5----5-5----5-5---|
    |-6------6------6------6--------|
    |-------------------------------|

    Fill into Chorus
    Gtr.2 w/dist. and slide

    |------------------------------|
    |-----------------------/13---|
    |------------------------------|
    |------------------------------|
    |------------------------------|
    |------------------------------|
    |
    |------------------------------|
    |------------------------------|
    |------------------------------|
    |----5-5----5-5----5-5----5-5--|
    |-3------3------3------3-------|
    |------------------------------|

    Chorus

    |---------------------------------|---------------------------------|
    |-12----------------------/13---|-8-------------------------------|
    |---------------------------------|---------------------------------|
    |---------------------------------|---------------------------------|
    |---------------------------------|---------------------------------|
    |---------------------------------|---------------------------------|
    |
    |Gtr.3 clean
    |---------------------------------|---------------------------------|
    |---------------------------------|---------------------------------|
    |---------------------------------|---------------------------------|
    |-5-5-5-5-5-5-5-5-5-5-5-5-5-5-5-5-|-3-3-3-3-3-3-3-3-3-3-3-3-3-3-3-3-|
    |-x-x-x-x-x-x-x-x-x-x-x-x-x-x-x-x-|-x-x-x-x-x-x-x-x-x-x-x-x-x-x-x-x-|
    |-3-3-3-3-3-3-3-3-3-3-3-3-3-3-3-3-|-1-1-1-1-1-1-1-1-1-1-1-1-1-1-1-1-|

    |---------------------------------|---------------------------------|
    |/15------------------------------|-(15)--------------------13------|
    |---------------------------------|---------------------------------|
    |---------------------------------|---------------------------------|
    |---------------------------------|---------------------------------|
    |---------------------------------|---------------------------------|
    |
    |---------------------------------|---------------------------------|
    |---------------------------------|---------------------------------|
    |---------------------------------|---------------------------------|
    |-8-8-8-8-8-8-8-8-8-8-8-8-8-8-8-8-|-8-8-8-8-8-8-8-8-8-8-8-8-8-8-8-8-|
    |-x-x-x-x-x-x-x-x-x-x-x-x-x-x-x-x-|-x-x-x-x-x-x-x-x-x-x-x-x-x-x-x-x-|
    |-6-6-6-6-6-6-6-6-6-6-6-6-6-6-6-6-|-6-6-6-6-6-6-6-6-6-6-6-6-6-6-6-6-|

    1st Interlude (After 1st Chorus)
    fdbk......
    |------------------|------------------|------------------|------------------|
    |-13---------------|-(13)-------------|-(13)-------------|-(13)-------------|
    |------------------|------------------|------------------|------------------|
    |------------------|------------------|------------------|------------------|
    |------------------|------------------|------------------|------------------|
    |------------------|------------------|------------------|------------------|

    2nd Interlude (After 2nd Chorus) ½
    |-(8)--------|-(8)-----8b----------|-7---8p7-8p7--5b--------|-----------------|
    |------------|---------------------|------------------------|-----------------|
    |------------|---------------------|------------------------|-----------------|
    |------------|---------------------|------------------------|-----------------|
    |------------|---------------------|------------------------|-----------------|
    |------------|---------------------|------------------------|-----------------|

    ½ ½
    |---8p7--8p7-------|-(7)-5b-----------8p|7--8--5b--------|----------------|
    |------------------|--------------------|----------------|-----------------|
    |------------------|--------------------|----------------|-----------------|
    |------------------|--------------------|----------------|-----------------|
    |------------------|--------------------|----------------|-----------------|
    |------------------|--------------------|----------------|-----------------|
    There`s another guitar performing feedback etc. I`ll get that soon

    Outro
    Gtr.1 plays Riff A palm muted

    Gtr.2 (What I have so far) w/infinite delay on last note
    |-/7~~~~------------|-/7--------11------|
    |-------------------|--------------------|
    |-------------------|--------------------|
    |-------------------|--------------------|
    |-------------------|--------------------|
    |-------------------|--------------------|





Benzer Konular

  1. Blind Guardian-bard's song gitar tabları
    Konuyu Açan: ensiferum13, Forum: Gitar Akor ve Tabları.
    Cevap: 2
    Son Mesaj : 24-Şub-2009, 01:24
  2. Pink Floyd-Another Brick In The Wall ritm Gitar tabları
    Konuyu Açan: ensiferum13, Forum: Gitar Akor ve Tabları.
    Cevap: 2
    Son Mesaj : 23-Tem-2008, 19:31
  3. A Perfect Circle
    Konuyu Açan: GynandeR_MagiciaN, Forum: Biyografiler.
    Cevap: 3
    Son Mesaj : 04-Tem-2008, 10:15
  4. Anathema Bas Gitar Tabları
    Konuyu Açan: boogee, Forum: Gitar Akor ve Tabları.
    Cevap: 0
    Son Mesaj : 25-Şub-2008, 20:35
  5. Gitar satın alma Rehberi ve Gitar muhabbetleri
    Konuyu Açan: caslanova, Forum: Rock / Metal.
    Cevap: 8
    Son Mesaj : 30-Ağu-2007, 00:01