Toplam 2 sonuçtan 1 ile 2 arasındakiler gösteriliyor.

Konu: Drowning Pool / Tear Away (gitar Tab)

  1. #1
    Drowning Pool / Tear Away (gitar Tab) boogee - ait Kullanıcı Resmi (Avatar)
    Üyelik tarihi
    Mar-2007
    Bulunduğu yer
    İzmir
    Mesajlar
    5.522
    Konular
    413

    Wink Drowning Pool / Tear Away (gitar Tab)


    Tuning: CGCFAD

    Intro 1: Phase Shifter/Phaser and distortion

    D|-------------------------------------------------------------|
    A|-------------------------------8--8--8--87-------------------|
    F|-8--8--8--87-------------------x--x--x--xx-------------------| x4
    C|-x--x--x--xx-------------------x--x--x--xx-------------------|
    G|-6--6--6--65----0-0--0---0-0-0-6--6--6--65----0-0--0---0-0-0-|
    C|----------------0-0--0---0-0-0----------------0-0--0---0-0-0-|
    Pm . . . . . . . . . . . .

    D|-------------------------------------------------------------|
    A|-------------------------------8--8--8--87-------------------|
    F|-8--8--8--87-------------------x--x--x--x--------------------| x1
    C|-x--x--x--x--------------------x--x--x--x--------------------|
    G|-6--6--6--65----0-0--0---0-0-0-6--6--6--65----0-0--0---------|
    C|----------------0-0--0---0-0-0----------------0-0--0---------|
    Pm . . . . . . . . .

    Intro 2: w/ wah/wah and Distortion

    D|--------------------------------------------------------------------|
    A|--------------------------------------------------------------------|
    F|-/14-14-14-14-14--14-14-12-12--12-12-12-1211--11-11--7--7-7-7--5-5--| x2
    C|---x--x--x--x--x---x--x--x--x---x--x--x--x-x---x--x--x--x-x-x--x-x--|
    G|-/12-12-12-12-12--12-12-10-10--10-10-10-10-9---9--9--5--5-5-5--3-3--|
    C|--------------------------------------------------------------------|

    Verse : Distortion on
    D|----------------------------------------------------------------|
    A|--------------------8--8--8--87---------------------------------|
    F|--------------------x--x--x--x-x--------------------8--8--8--87-|
    C|--------------------x--x--x--x-x--------------------x--x--x--xx-|
    G|-0-0--0-0--0-0--0-0-6--6--6--65--0-0--0-0--0-0--0-0-6--6--6--65-|
    C|-0-0--0-0--0-0--0-0--------------0-0--0-0--0-0--0-0-------------|
    Pm . . . . . . . . . . . . . . . .

    D|-----------------------------------------------------------------|
    A|--------------------8--8--8--87----------------------------------|
    F|--------------------x--x--x--xx---------------------------7-7----|
    C|--------------------x--x--x--xx---------------------------x-x----|
    G|-0-0--0-0--0-0--0-0-6--6--6--65--0-0--0-0--0-0--0-0---5-5-5-5----|
    C|-0-0--0-0--0-0--0-0--------------0-0--0-0--0-0--0-0---0-0-0-0----|
    Pm . . . . . . . . . . . . . . . . . .

    Chorus:
    D|------------------------------------------------|
    A|------------------------------------------------|
    F|---------7--7------7----------------------------| x2
    C|-0---0-0-x--x-0--0-x-0-0-8---8-8--8--8-5-5--5-5-|
    G|-0---0-0-5--5-0--0-5-0-0-8---8-8--8--8-5-5--5-5-|
    C|-0---0-0-0--0-0--0-0-0-0-8---8-8--8--8-5-5--5-5-|

    D|------------------------------------------------|
    A|------------------------------------------------|
    F|---------7--7------7----------------------------| x1
    C|-0---0-0-x--x-0--0-x-0-0---8-8-8-8-8--5-5-5-5-5-|
    G|-0---0-0-5--5-0--0-5-0-0---8-8-8-8-8--5-5-5-5-5-|
    C|-0---0-0-0--0-0--0-0-0-0---8-8-8-8-8--5-5-5-5-5-|

    Post Chorus: With Wah

    D|------------------------------------------------------------------------|
    A|------------------------------------------------------------------------|
    F|-/14-14-14-14-14--14-14-12-12--12-12-12-12--11--11-11---7--7-7-7--5-5---|
    C|---x--x--x--x--x---x--x--x--x---x--x--x--x---x---x--x---x--x-x-x--x-x---|
    G|-/12-12-12-12-12--12-12-10-10--10-10-10-10---9---9--9---5--5-5-5--3-3---|
    C|------------------------------------------------------------------------|

    Then to Verse:
    Then Chorus:

    Bridge: Stacato Notes

    D|-------------------------------------------------|
    A|-------------------------------------------------|
    F|-------------------------------------------------|
    C|-1-0--1-0--1-0-x---------1-0--1-0--1-0--x--------|
    G|-1-0--1-0--1-0-x---------1-0--1-0--1-0--x--------|
    C|-1-0--1-0--1-0-x---------1-0--1-0--1-0--x--------|

    Solo: w/wah

    D|----17---17-17--17--17-17--17-17-17-15--15-15--15-15--18-18--17h18p17--13-|
    A|--------------------------------------------------------------------------|
    F|--------------------------------------------------------------------------|
    C|--------------------------------------------------------------------------|
    G|--------------------------------------------------------------------------|
    C|--------------------------------------------------------------------------|

    D|-12-10--10--8--8--8--8-8--11-11--10----20br-20br-20br--20-20-17--20-17--15---|
    A|-----------------------------------------------------------------------------|
    F|-----------------------------------------------------------------------------|
    C|-----------------------------------------------------------------------------|
    G|-----------------------------------------------------------------------------|
    C|-----------------------------------------------------------------------------|

    D|-15br---15br---8--10-8-10-8--8--8-8--85--5-5--5--5-8-8----|
    A|----------------------------------------------------------|
    F|----------------------------------------------------------|
    C|----------------------------------------------------------|
    G|----------------------------------------------------------|
    C|----------------------------------------------------------|

    Outro: Clean w/wah

    D|----------------------------------------------|----------------|
    A|----------------------------------------------|----------------|
    F|-------7----------7-\------3------3---3--3/7--|-----------7^---|
    C|-0---0----0--0-0--0--0-0-0----0-0---0---------|--------5-------|
    G|----------------------------------------------|-----5----------|
    C|----------------------------------------------|--5-------------|

    or

    D|----------------------------------------|-------------------------------------------------------|
    A|----------------------------------------|-------------------------------------------------------|
    F|--------------7------------7------------|--------------3-----3-----------------7----------------|
    C|-------------------------------7--------|-----------------------------------5-------5-----------|
    G|---------5----------5------------5------|---1-------1-----1-----------5--------------5----------|
    C|--0-------------------------------------|--------------------------5----------------------5-----|


    D|-------------------------------------|---------------------------------------------------------|
    A|-------------------------------------|---------------------------------------------------------|
    F|--------------7------------7---------|--------------3-----3/7-----------------7----------------|
    C|------------------------------7------|------------------------------------5--------------------|
    G|----------5----------5----------5----|---1-------1-----1--------------5------------------------|
    C|--0----------------------------------|----------------------------5----------------------------|



  2. #2
    freddy - ait Kullanıcı Resmi (Avatar)
    Üyelik tarihi
    Nis-2007
    Bulunduğu yer
    bodrum.vietnam
    Mesajlar
    408
    Konular
    63
    yalnız bu şarkıyı hakkını vererek çalmak için sağlam bi effector lazım insana


Benzer Konular

  1. Drowning Pool Videoları
    Konuyu Açan: vegeta, Forum: Videolar.
    Cevap: 6
    Son Mesaj : 06-Nis-2013, 22:51
  2. Cilekes / Siyah (gitar Tab)
    Konuyu Açan: boogee, Forum: Gitar Akor ve Tabları.
    Cevap: 1
    Son Mesaj : 24-Şub-2009, 01:31
  3. Gitar satın alma Rehberi ve Gitar muhabbetleri
    Konuyu Açan: caslanova, Forum: Rock / Metal.
    Cevap: 8
    Son Mesaj : 30-Ağu-2007, 00:01
  4. Sıradışı Gitar Resimleri
    Konuyu Açan: Sepia, Forum: İlginç ve Komik Resimler.
    Cevap: 4
    Son Mesaj : 09-Tem-2007, 13:18
  5. Giyilebilir Gitar!!!???
    Konuyu Açan: whitepower, Forum: Bilim & Teknoloji.
    Cevap: 7
    Son Mesaj : 13-Kas-2006, 21:16