Toplam 2 sonuçtan 1 ile 2 arasındakiler gösteriliyor.

Konu: Coldplay / Clocks (gitar Tab)

  1. #1
    Coldplay / Clocks (gitar Tab) boogee - ait Kullanıcı Resmi (Avatar)
    Üyelik tarihi
    Mar-2007
    Bulunduğu yer
    İzmir
    Mesajlar
    5.522
    Konular
    413

    Thumbs down Coldplay / Clocks (gitar Tab)


    Intro (Piano Riff)
    -11------------11------------11----------|
    -----11------------11------------11------|
    ---------12------------12----------------|
    -----------------------------------------|
    -----------------------------------------|
    -----------------------------------------|

    (2x)
    -9-------------9--------------9----------|
    -----11------------11------------11------|
    ---------10-------------10---------------|
    -----------------------------------------|
    -----------------------------------------|
    -----------------------------------------|

    -8-------------8--------------8----------|
    -----9-------------9--------------9------|
    --------10-------------10----------------|
    -----------------------------------------|
    -----------------------------------------|
    -----------------------------------------|

    (Guitar Riff ? Intro)

    -----------------------------------|
    -----------------------------------|
    -8-------------8-------------8-8---|
    -8---8.---8.---8---8.---8.?--8-8---|
    10--10.?-10.?-10--10.?-10.?-10-10--|
    -----------------------------------|

    (2x)
    ----------------------------------|
    ----------------------------------|
    ----------------------------------|
    -8----------8-------------8-8-----|
    -8---8.?8.--8---8.---8.---8-8-----|
    -9---9.?9.?-9---9.---9.---9-9-----|

    -----------------------------------------|
    -----------------------------------------|
    -8----------------8-----------------8-8--|
    10---10.---10.---10---10.---10.----10-10-|
    11---11.---11.---11---11.---11.----11-11-|
    -----------------------------------------|

    Part during the 2nd verse ?Closing walls and ticking clocks?

    ----13-----------(13)-11------------(11)-----------|
    ---------------------------------------------------|
    ---------------------------------------------------|
    ---------------------------------------------------|
    ---------------------------------------------------|
    ---------------------------------------------------|

    Chorus (:58, 1:56)
    ---------------------------------------------------------|
    ---------------------------------------------------------|
    --8---8---8---8---8---8---8------------------------------|
    --8---8---8---8---8---8---8----8---8---8---8---8---8---8-|
    --6---6---6---6---6---6---6----8---8---8---8---8---8---8-|
    -------------------------------6---6---6---6---6---6---6-|

    ---------------------------------------------------------|
    ---------------------------------------------------------|
    ---------------------------------------------------------|
    -8---8---8---8---8---8---8----3---3---3---3---3---3---3-|
    -8---8---8---8---8---8---8----3---3---3---3---3---3---3-|
    -6---6---6---6---6---6---6----1---1---1---1---1---1---1-|

    Interlude (Piano)

    -16-15-----16-15-----16-15---16-15-----16-15------16-15--|
    -------16--------16--------------------------------------|
    -----------------------------------18---------18---------|
    ---------------------------------------------------------|
    ---------------------------------------------------------|
    ---------------------------------------------------------|

    -16-15-----16-15-----16-15---16-15-----16-15------16-15--|
    ---------------------------------------------------------|
    -------18---------18---------------17---------17---------|
    ---------------------------------------------------------|
    ---------------------------------------------------------|
    ---------------------------------------------------------|


    (6x)

    ------------------------------------------|
    ------------------------------------------|
    -10---10---10---10---10---10---10---10----|
    ------------------------------------------|
    ------------------------------------------|
    ------------------------------------------|

    -------------------------------------------------------|
    -------------------------------------------------------|
    -13---13---13---13---13---13---13---13---10---10---10--|
    -------------------------------------------------------|
    -------------------------------------------------------|
    -------------------------------------------------------|

    ------------------------------------------------------|
    ------------------------------------------------------|
    ----------------------------10---10---10---10---10?-10|
    -8---8---8---8---8---8---8----------------------------|
    ------------------------------------------------------|
    ------------------------------------------------------|

    Bridge (Guitar)
    2x

    ---------------------------|
    ---------------------------|
    ---------------------------|
    -8?-8?-8?-8?-8?-8?-8?-8----|
    -8?-8?-8?-8?-8?-8?-8?-8----|
    -9?-9?-9?-9?-9?-9?-9?-9----|

    ------------------------------------------------------|
    ------------------------------------------------------|
    ------------------------------------------------------|
    --------------------------10---10---10---10---10---10-|
    -11?11?11?11?11?11?11?11?-11---11---11---11---11---11-|
    --9?-9?-9?-9?-9?-9?-9?-9?-11---11---11---11---11---11-|

    Outro (8x)

    -------------4---3-------------------4---3---1--------|
    ---4-----4----------4------(4)-----2------------------|
    ------------------------------------------------------|
    ------------------------------------------------------|
    ------------------------------------------------------|
    ------------------------------------------------------|

    -------4---3---1--------------4---3------------------|
    ---2---------------2----1---4---------4---------(4)--|
    -----------------------------------------------------|
    -----------------------------------------------------|
    -----------------------------------------------------|
    -----------------------------------------------------|



  2. #2
    teşekkürler ...


Benzer Konular

  1. Cilekes / Siyah (gitar Tab)
    Konuyu Açan: boogee, Forum: Gitar Akor ve Tabları.
    Cevap: 1
    Son Mesaj : 24-Şub-2009, 01:31
  2. Cranberries / Zombie (gitar Tab)
    Konuyu Açan: boogee, Forum: Gitar Akor ve Tabları.
    Cevap: 0
    Son Mesaj : 25-Şub-2008, 21:09
  3. Gitar satın alma Rehberi ve Gitar muhabbetleri
    Konuyu Açan: caslanova, Forum: Rock / Metal.
    Cevap: 8
    Son Mesaj : 30-Ağu-2007, 00:01
  4. Sıradışı Gitar Resimleri
    Konuyu Açan: Sepia, Forum: İlginç ve Komik Resimler.
    Cevap: 4
    Son Mesaj : 09-Tem-2007, 13:18
  5. Giyilebilir Gitar!!!???
    Konuyu Açan: whitepower, Forum: Bilim & Teknoloji.
    Cevap: 7
    Son Mesaj : 13-Kas-2006, 21:16