Toplam 2 sonuçtan 1 ile 2 arasındakiler gösteriliyor.

Konu: Cilekes / Siyah (gitar Tab)

  1. #1
    Cilekes / Siyah (gitar Tab) boogee - ait Kullanıcı Resmi (Avatar)
    Üyelik tarihi
    Mar-2007
    Bulunduğu yer
    İzmir
    Mesajlar
    5.523
    Konular
    413

    Wink Cilekes / Siyah (gitar Tab)


    ilk girişi palm muting şeklinde bir kere

    ------------------------------------------
    ------------------------------------------
    ---11-11-13---8-9-8-----------------------
    ------------------------------------------
    ------------------------------------------
    ------------------------------------------

    çalıyorsunuz

    ------------------------------------------
    ------------------------------------------
    ---11-11-13---8-9-9/11--------------------
    ------------------------------------------
    ------------------------------------------
    ------------------------------------------

    yapıyor ve tekrar


    ------------------------------------------
    ------------------------------------------
    ---11-11-13---8-9-8----------------------- X 3 Kez
    ------------------------------------------
    ------------------------------------------
    ------------------------------------------


    ------------------------------------------
    ------------------------------------------
    ---11-11-13---8-9-9/11-------------------- X 1 Kez
    ------------------------------------------
    ------------------------------------------
    ------------------------------------------

    Şarkıdan nakarata kadar 3 kez ilkini 1 kez diğerini yapıyor



  2. #2
    teşekkürler lazımdı


Benzer Konular

  1. siyah
    Konuyu Açan: coldhellangel, Forum: Şiir.
    Cevap: 2
    Son Mesaj : 23-Kas-2007, 23:06
  2. Gitar satın alma Rehberi ve Gitar muhabbetleri
    Konuyu Açan: caslanova, Forum: Rock / Metal.
    Cevap: 8
    Son Mesaj : 30-Ağu-2007, 00:01
  3. Siyah mum yapımı
    Konuyu Açan: Şaman, Forum: Witchcraft.
    Cevap: 43
    Son Mesaj : 26-Ağu-2007, 04:03
  4. Siyah ve Beyaz
    Konuyu Açan: Urumhamatahayil, Forum: İlginç ve Komik Resimler.
    Cevap: 6
    Son Mesaj : 24-Mar-2007, 02:25